Oops, an error
Loading. Please wait.

Time Running Tab

version 1
version 1

Whole song

Interactive

2,576 views 3 this week
1 commentread comment
1 2 3 4 5
2 more votes to show rating
add to favorites
launch autoscroll
font size
0
reset
how to read this tab
guitar tuner
Autoscroll
slow
fast
+/-
esc
set tempo
stop
Help us to improve Ultimate-Guitar.com Take our survey!
×
Author
Difficulty
novice
Intro x4:
e|-------------------------------------------|
B|--------------10-10------------------------|
G|---9----9-----9--9-----11-11------9-9------|
D|---9----9-----7--7-----11-11------9-9------|
A|---7----7--------------9--9-------7-7------|
E|-------------------------------------------|

Verse x4:
e|-------------------------------------------|
B|--------------10-10------------------------|
G|---9----9-----9--9-----11-11------9-9------|
D|---9----9-----7--7-----11-11------9-9------|
A|---7----7--------------9--9-------7-7------|
E|-------------------------------------------|

Chorus x1:
e|--------------------------------------------------------------------------------------------|
B|--------------------------------------------------------------------------------------------|
G|-------------------------------------------------------7-7-7-7--7-7-7-7--7-7-7-7--7-7-7-7---|
D|---10-10-10-10--10-10-10-10--10-10-10-10--10-10-10-10--7-7-7-7--7-7-7-7--7-7-7-7--7-7-7-7---|
A|---10-10-10-10--10-10-10-10--10-10-10-10--10-10-10-10--5-5-5-5--5-5-5-5--5-5-5-5--5-5-5-5---|
E|---8--8--8--8---8--8--8--8---8--8--8--8---8--8--8--8----------------------------------------|

Verse x5

Chorus x2

Bridge x1:
e|--------------------------------------------------------|
B|--------------------------------------------------------|
G|---12-12-12-12--12-12-12-12-----------------------------|
D|---12-12-12-12--12-12-12-12--12-12-12-12--12-12-12-12---| X2
A|---10-10-10-10--10-10-10-10--12-12-12-12--12-12-12-12---|
E|-----------------------------10-10-10-10--10-10-10-10---|

e|--------------------------------------------------------|
B|--------------------------------------------------------|
G|---10-10-10-10--10-10-10-10-----------------------------|
D|---10-10-10-10--10-10-10-10---10-10-10-10--10-10-10-10--| X2
A|---8--8--8--8---8---8--8--8---10-10-10-10--10-10-10-10--|
E|------------------------------8--8--8--8---8--8--8--8---|

Verse x5

Chorus x4

Verse X2

end on:
e|----------|
B|----------|
G|--9---9---|
D|--9---9---|
A|--7---7---|
E|----------|
Suggest correction
Give kudos to tab author, rate the tab!
1 2 3 4 5
comments
print report bad tab
1 comment total.
+1 reply
jaysk8s 159 Apr 04, 2010 04:58 PM

sounds great but i think the intro should go e|-------------------------------------------|
B|--------------10-10------------------------|
G|---9----9-----9--9-----12-12------9-9------|
D|---9----9-----7--7-----12-12------9-9------|
A|---7----7--------------10-10------7-7------|
E|-------------------------------------------|

and i play the
e|----------|
B|--10--10--|
G|--9---9---|
D|--7---7---|
A|----------|
E|----------|
part on
e|----------|
B|----------|
G|--14-14---|
D|--14-14---|
A|--12-12---|
E|----------|
but that's just how i play it

guest
You may want to rate the tab now too:
select rating
Wanna post a correction for this tab? Suggest correction