Oops, an error
Loading. Please wait.

We Didnt Do It Tab

5,921 views 6 this week
no commentswrite comment
1 2 3 4 5
excellent!
x 4
add to favorites
launch autoscroll
font size
0
reset
how to read this tab
guitar tuner
Tab Pro tools
  • play this tab
  • loop segment
  • change instrument
  • show fretboard
  • metronome
×
Best way to learn
"We Didnt Do It"
Autoscroll
slow
fast
+/-
esc
set tempo
stop
Contributor
verse

e------------------------------------------|
B-10-10-xx---------8-8-xx------------------|
G-9--9--xx-5-5-xx--7-7-xx--7-7-xx----------|
D-7--7--xx-5-5-xx--5-5-xx--7-7-xx----------|
A----------3-3-xx----------5-5-xx----------|
E------------------------------------------|


Chorus

you can play the chorus in two ways

1
e-------------------------------------------------|
B-------------------------------------------------|
G--7--7--x-x--7--7--x-x---5--5--x-x---5--5--x-x---|
D--7--7--x-x--7--7--x-x---5--5--x-x---5--5--x-x---|
A--5--5--x-x--5--5--x-x---3--3--x-x---3--3--x-x---|
E-------------------------------------------------|

Or 2


e-------------------------------------------------|
B-------------------------------------------------|
G--7--7-------7--7--------5--5--------5--5--------|
D--7--7-------7--7--------5--5--3-2---5--5--3-2---|
A--5--5--8-7--5--5--8-7---3--3--------3--3--------|
E-------------------------------------------------|


Riff
(you think i got my...)

e------------------------------------------|
B--8-8-xx--10-10-xx------------------------|
G--7-7-xx--9--9--xx--10-10-xx---10-10-xx---|
D--5-5-xx--7--7--xx--10-10-xx---10-10-xx---|
A--------------------8--8--xx---8--8--xx---|
E------------------------------------------|


and this is it.
i don't have the power to write down the whole struming thing so i just wrote the tabs,
in the chorus you'll have to play the first power chord a couple of times more, and in
riff in some parts you'll have to play the last power chord  a few times more and to cut 
the begining of the riff in the middle. you just have to listen good to the song and
get it, it's realy not a problem.

Shani =]
comments
print report bad tab
I want to post or [tab]
guest
You may want to rate the tab now too:
select rating
Please do not post tabs as comments. Select "correction" instead!