Oops, an error
Loading. Please wait.

Where Does The Good Go Bass

version 1
version 1

Whole song

Interactive

4,828 views 6 this week
2 commentsread comments
1 2 3 4 5
x 4
add to favorites
launch autoscroll
font size
0
reset
guitar tuner
×
Best way to learn
"Where Does The Good Go"
Autoscroll
slow
fast
+/-
esc
set tempo
stop
Author
Difficulty
Tuning
  follow
novice
D A D G
Artist: Tegan and Sara
Album: So Jealous (2004)
Song: Where Does The Good Go (written by Tegan R. Quin)


Intro/verse (x5)
G|---------------------------------------------|
D|---------------------------------------------|
A|---------------------------------------------|
D|-6-686-5-565-3-353-1-1-1---------------------|

Chorus
G|-----------------------------------------------|
D|-----------------------------------------------|
A|-6-6-6-6-5-5-5-5-------------------------------|
D|-----------------------------------------------|

G|----------------------------|
D|-1--1--1--1--0--0--0--0-----|
A|--1--1--1--1--1--1--1--1----|
D|----------------------------|

verse (x4)
G|---------------------------------------------|
D|---------------------------------------------|
A|---------------------------------------------|
D|-6-686-5-565-3-353-1-1-1---------------------|

Chorus
G|----------------------------------------------|
D|----------------------------------------------|
A|-6-6-6-6-5-5-5-5------------------------------|
D|----------------------------------------------|

G|----------------------------|
D|-1--1--1--1--0--0--0--0-----|
A|--1--1--1--1--1--1--1--1----|
D|----------------------------|

Verse (play this one really quietly)
G|---------------------------------------------|
D|---------------------------------------------|
A|---------------------------------------------|
D|-6-686-5-565-3-353-1-1-1---------------------|

Chorus
G|----------------------------------------------|
D|----------------------------------------------|
A|-6-6-6-6-5-5-5-5------------------------------|
D|----------------------------------------------|

End on
G|----------------------------------------------|
D|----------------------------------------------|
A|-6--------------------------------------------|
D|----------------------------------------------|
 
Pretty sure this is accurate.
Suggest correction
comments
print report bad tab
2 comments total.
+5 reply
pojoto 53 Jun 18, 2009 04:17 PM

you can't play the intro/verse on the E string because it's not low enough, the last note is Eb not E, so it's better on the D string, like:

Intro/verse (x5)
G|---------------------------------------------|
D|-6-686-5-565-3-353-1-11-1--------------------|
A|---------------------------------------------|
E|---------------------------------------------|

otherwise, really good!

0 reply
Andrax20 160 Jan 07, 2010 11:51 AM

Bah, the other guy beat me to it. Your chorus is bang on, but the main riff if a couple octives low. What he posted is right.

guest
You may want to rate the tab now too:
select rating
Wanna post a correction for this tab? Suggest correction