Oops, an error
Loading. Please wait.

Where Does The Good Go tab

version 2
version 2

Interactive

25,649 views 6 this week
3 commentsread comments
1 2 3 4 5
x 5
add to favorites
×
Save as Personal and add changes to this tab that will be seen only by you. Learn more ›
×
You can save this tab as Personal to edit and correct it or add notes. All changes will be seen only by you. Learn more »
launch autoscroll
font size
0
reset
how to read this tab
guitar tuner
edit
Autoscroll
slow
fast
+/-
esc
set tempo
stop
Author
Verse -


e---------------------|
B---------------------|
G--13-----13----------|
D--13-X8--13-X8-------|
A--11-----10----------|
E---------------------|

Chorus -

e------------------|
B------------------|
G---8-----8--------|
D---8-X8--8--X8----|
A---6-----5--------|
E------------------|

Background / Intro


e-------------------------------------------|
B-------------------------------------------|
G-------------------------------------------|
D-------------------------------------------|
A------------------------------------6--6-6-|
E--4---4-6-4---3---3-4-3---1---1-3-1--------|



listen to the song to understand the strumming.

this 100% right... you can see it rihgt here:

http://www.youtube.com/watch?v=vjg_5taQASk&search=where%20does%20the%20good%20go
Suggest correction
Creating personal tab
Creating personal tab
You can edit any tab online and save it as your Personal.

You can edit, replace or remove any tab part or add personal notes – all changes will be seen only by you.

Personal tabs can be accessed anytime from any device, even offline.
Learn more »
comments
print report bad tab
3 comments total.
0 reply
oh rachelle 41 Jan 03, 2010 08:57 AM

Wow, great song, but really boring to play xD

0 reply
bunterhund 62 Jun 16, 2010 05:47 AM

Tuning should be EADGAD, so you can do the intense strumming as seen in the clip...

0 reply
bunterhund 62 Jun 16, 2010 05:54 AM

screw that, sorry, should be E A D G Bb Eb

guest
You may want to rate the tab now too:
select rating
Wanna post a correction for this tab? Suggest correction