Oops, an error
Loading. Please wait.

Where Does The Good Go Tab

version 3
version 3

Interactive

34,617 views 30 this week
4 commentsread comments
1 2 3 4 5
excellent!
x 26
add to favorites
launch autoscroll
font size
0
reset
how to read this tab
guitar tuner
Tab Pro tools
  • play this tab
  • loop segment
  • change instrument
  • show fretboard
  • metronome
×
Best way to learn
"Where Does The Good Go"
Autoscroll
slow
fast
+/-
esc
set tempo
stop
Contributor
----------------------------------------
WHERE DOES THE GOOD GO? - Tegan and Sara
----------------------------------------

Simple song to play. Sounds great with two people playing each part. And yeah, I'm 
sure these are 99% correct because I watched a close-up video and got all the fingerings 
So...enjoy!

Guitar I Tuning: Standard
Guitar II Tuning: Drop D

GUITAR I INTRO/VERSE (palm-muted):
e|-------------------------------------------------|
B|-------------------------------------------------|
G|-------------------------------------------------|
D|-13-13-13-13-13-13-13-13-13-13-13-13-13-13-13-13-|
A|-11-11-11-11-11-11-11-11-10-10-10-10-10-10-10-10-|
E|-------------------------------------------------|

e|-------------------------------------------------|
B|-------------------------------------------------|
G|-------------------------------------------------|
D|-13-13-13-13-13-13-13-13-13-13-13-13-13-13-13-13-|
A|-11-11-11-11-11-11-11-11-10-10-10-10-10-10-10-10-|
E|-------------------------------------------------|

GUITAR II INTRO/VERSE (palm-muted):
e|------------------------------------|
B|------------------------------------|
G|------------------------------------|
D|------------------------------------|
A|------------------------------------|
E|-6--6-8-6-5--5-6-5-3--3-5-3-1---1---|

GUITAR I CHORUS:
e|-x-x-x-x-x-x-x-x-x-x-x-x-x-x-x-x-|
B|-x-x-x-x-x-x-x-x-x-x-x-x-x-x-x-x-|
G|-8-8-8-8-8-8-8-8-8-8-8-8-8-8-8-8-|
D|-8-8-8-8-8-8-8-8-8-8-8-8-8-8-8-8-|
A|-6-6-6-6-6-6-6-6-5-5-5-5-5-5-5-5-|
E|-x-x-x-x-x-x-x-x-x-x-x-x-x-x-x-x-|

GUITAR II CHORUS:
e|-x-x-x-x-x-x-x-x-x-x-x-x-x-x-x-x-|
B|-x-x-x-x-x-x-x-x-x-x-x-x-x-x-x-x-|
G|-8-8-8-8-8-8-8-8-8-8-8-8-8-8-8-8-|
D|-8-8-8-8-8-8-8-8-8-8-8-8-8-8-8-8-|
A|-6-6-6-6-6-6-6-6-5-5-5-5-5-5-5-5-|
E|-x-x-x-x-x-x-x-x-x-x-x-x-x-x-x-x-|
comments
print report bad tab
4 comments total. Showing first comments.
0 reply
hahahannahaha wrote on March 4 2007, 01:09 pm

the chorus chords are (barre) Eb major and then Bb major [if it wasnt drop D, just don't play the bottom string instead of re-tuning]

0 reply
iwstbm wrote on March 19 2007, 04:56 pm

awesome tabs man :]

0 reply
shasta92 wrote on November 4 2008, 03:48 pm

D and this
-----
-----
--2--
--2--
-----
-----

I want to post or [tab]
guest
You may want to rate the tab now too:
select rating
Please do not post tabs as comments. Select "correction" instead!