Oops, an error
Loading. Please wait.

Follow chords

301 views 1 this week
no commentswrite comment
1 2 3 4 5
1 last vote to show rating
add to favorites
×
Save as Personal and add changes to this tab that will be seen only by you. Learn more ›
×
You can save this tab as Personal to edit and correct it or add notes. All changes will be seen only by you. Learn more »
launch autoscroll
font size
0
reset
transpose
0
reset
display chords
guitar tuner
edit
Autoscroll
slow
fast
+/-
esc
set tempo
stop
Author
Difficulty
Strumming
There is no strumming pattern for this song yet. and get +5 IQ
Follow-Telegram  


[Intro]

Use for verses.

e|---12---------------7----------------5----------------0------------------------|
B|---12---------------7----------------5----------------0------------------------|
G|---13---------------7----------------6----------------1------------------------|
D|---14---------------9----------------7----------------2------------------------|
A|---14---------------9----------------7----------------2------------------------|
E|---12---------------7----------------5----------------0------------------------|
     E                Bm                A                E  
    
  
[Verse 1]

E                       Bm
Follow follow there you go,
                        A
This is just to let you know
                  E
I keep on turning round and now?

E                     Bm
Alone alone there you go
                  A
Its just a to and fro 
                    E
And its all slowing down and now?


[Chorus 1]

E                   Bm           E 
The Sirens of Titan are falling, avast (or so fast?) 
                     D  
When you got nothing is it easy?
E                   Bm            A
The Sirens of Titans are falling, avast
                   E 
So don't send then around, no.


[Verse 2]

E                      Bm
Today today, just like yesterday
A                   E
And its all turning round and now

E                      Bm
Alone alone, there you go
                     A
Her moving is to and fro
                 E 
So don't make a sound, a sound, a sound. Hey!

E Bm E D


[Chorus 2]

E                   Bm           E
The Sirens of Titan are falling, avast 
                         D
When you've done nothing is it easy?


[Solo]  

e|-12-12-----10-10-10--9-9-9--7--------------------------------------|
B|-12---12---9--9--9---9-9-9--9--------------------------------------|
G|-13--------9--9--9---9-9-9--9--------------------------------------|  x11
D|-14----------------------------------------------------------------|
A|-14----------------------------------------------------------------|
E|-12----------------------------------------------------------------|

E


[Verse 3]

E            Bm                 A
Today today, there's no time to delay
                     E      
And its all breaking down, now

E                      Bm
Alone alone, there you go
                  A
Its just a to and fro
                    E
And its all slowing down, now.

E                      Bm
Today Today Today Today Today Today Today Today
A                   E      
And its all turning round, now.

E                      Bm
Alone Alone Alone Alone Alone Alone Alone Alone
A                     E
And it's all slowing down, now. Hey!


[Instrumental]

E Bm A E
E Bm A E
E Bm D C
E Bm D C

Hold the C and end one an E.


            
            
Suggest correction
Creating personal tab
Creating personal tab
You can edit any tab online and save it as your Personal.

You can edit, replace or remove any tab part or add personal notes – all changes will be seen only by you.

Personal tabs can be accessed anytime from any device, even offline.
Learn more »
Give kudos to tab author, rate the tab!
1 2 3 4 5
comments
print report bad tab
guest
You may want to rate the tab now too:
select rating
Wanna post a correction for this tab? Suggest correction