Oops, an error
Loading. Please wait.

Please Ask For Help Bass Tab

952 views 6 this week
no commentswrite comment
1 2 3 4 5
excellent!
x 5
add to favorites
launch autoscroll
font size
0
reset
guitar tuner
Autoscroll
slow
fast
+/-
esc
set tempo
stop
Help us to improve Ultimate-Guitar.com Take our survey!
×
Author
Difficulty
novice
This is my first tab, there wasn't any bass tabs so I thought I'd give it a go I'm not 
quite sure about the verse but the intro/chorus sounds about right

Intro/Chorus
G[----------------------------------------|
D[------------------------7-9-9-9-9-9-7---|
A[------------7-7-7-7-7-9---------------5-|
E[5-5-5-5-5-5-----------------------------|

Verse
G[----------------------------------|
D[4-4-4-4-----------------7-7-7-9-7-|
A[--------2-2-2-2-5-5-5-5-----------|
E[----------------------------------|
Suggest correction
comments
print report bad tab
guest
You may want to rate the tab now too:
select rating
Please do not post tabs as comments. Select "correction" instead!