Oops, an error
Loading. Please wait.

Rust Chords

version 2
version 2

Whole song

4,013 views 1 this week
1 commentread comment
1 2 3 4 5
x 3
add to favorites
launch autoscroll
font size
0
reset
transpose
0
reset
display chords
guitar tuner
Autoscroll
slow
fast
+/-
esc
set tempo
stop
Help us to improve Ultimate-Guitar.com Take our survey!
×
Capo
2nd fret
Artist: Telekinesis
Song: Rust
Album: Telekinesis!

This is 100% correct... there's another tab going around, but this is the way
Michael plays it.  I've just listed the chords here.

CAPO 2

Verse 1 (0:05-0:51)
E-------0-----0------|
B-3-----1-----1------|
G-4-----2-----0------|
D-5-----2-----2------|
A-5-----0-----3------|
E--------------------|

Pre-chorus (0:51-1:08)
E----------------|
B-3-------1------|
G-0-------0------|
D-4-------2------|
A-5-------3------|
E-5-------3------|

(1:08-1:23)
E-0----0----0----0----0----0------------|
B-1----1----1----1----1----1----3-------|
G-2----0----2----0----2----0----0-------|
D-2----2----2----2----2----2----4-------|
A-0----3----0----3----0----3----5-------|
E-------------------------------5-------|

Chorus (1:23-1:46)
E--------0------0-------|
B-3------1------1-------|
G-4------2------0-------|
D-5------2------2-------|
A-5------0------3-------|
E-----------------------|

Verse 2 (1:46-1:57) - strum each chord just once
E---------0-------0-----------------------------|
B-3-------1-------1--------3-------1-------0----|
G-4-------2-------0--------4-------2-------0----|
D-5-------2-------2--------5-------2-------2----|
A-5-------0-------3--------5-------0-------3----|
E-----------------------------------------------|
Suggest correction
Give kudos to tab author, rate the tab!
1 2 3 4 5
comments
print report bad tab
1 comment total.
+1 reply
buscome 10 Aug 18, 2009 03:06 PM

perfect!

guest
You may want to rate the tab now too:
select rating
Wanna post a correction for this tab? Suggest correction