Oops, an error
Loading. Please wait.

You Turn Clear In The Sun Tab

1,081 views 1 this week
no commentswrite comment
1 2 3 4 5
3 more votes to show rating
add to favorites
launch autoscroll
font size
0
reset
how to read this tab
guitar tuner
Autoscroll
slow
fast
+/-
esc
set tempo
stop
Help us to improve Ultimate-Guitar.com Take our survey!
×
Author
------------------------------------------------------
                             You turn clear in the sun
                                         Telekinesis
-------------------------------------------------------
Tabbed by: Max Ryan
Email: max.ryan@mac.com

Not sure if the bridge is 100% right and you don’t play the chorus after the bridge

Tuning: standard
                                Fell in love in the summer
E|--x--x--x--x--x--x--x--x--x--x--x--x--x--x--x--x--x—-x--|
B|--x--x--x--x--x--x--x--x--x--x--x--x--x--x--x--x--x--x--|
G|--6--6--6--6--6--6--6--6--6--6--6--6--6--6--6--6--6--6--|
D|--7--7--7--7--7--7--7--7--7--7--7--7--7--7--7--7--7--7--|
A|--7--7--7--7--7--7--7--7--7--7--7--7--7--7--7--7--7--7--|
E|--5--5--5--5--5--5--5--5--5--5--5--5--5--5--5--5--5--5--|


E|--x—-x--x--x--x--x--x--x--x---x---x---x---x---x---x---x---x---x--|
B|--x--x--x--x--x--x--x--x--x---x---x---x---x---x---x---x---x---x--|
G|--8--8--8--8--8--8--8--8--8--11--11--11--11--11--11--11--11--11--|
D|--9--9--9--9--9--9--9--9--9--12--12--12--12--12--12--12--12--12--|
A|--9--9--9--9--9--9--9--9--9--12--12--12--12--12--12--12--12--12--|
E|--7--7--7--7--7--7--7--7--7--10--10--10--10--10--10--10--10--10--|


E|--x--x--x--x--x--x--x--x--x--x--x--x--x--x--x--x--x—-x---|
B|--x--x--x--x--x--x--x--x--x--x--x--x--x--x--x--x--x--x---|
G|--6--6--6--6--6--6--6--6--6--6--6--6--6--6--6--6--6--6---|
D|--7--7--7--7--7--7--7--7--7--7--7--7--7--7--7--7--7--7---|
A|--7--7--7--7--7--7--7--7--7--7--7--7--7--7--7--7--7--7---|
E|--5--5--5--5--5--5--5--5--5--5--5--5--5--5--5--5--5--5---|


E|--x—-x--x--x--x--x--x--x--x---x---x---x---x---x---x---x---x---x--|
B|--x--x--x--x--x--x--x--x--x---x---x---x---x---x---x---x---x---x--|
G|--8--8--8--8--8--8--8--8--8--11--11--11--11--11--11--11--11--11--|
D|--9--9--9--9--9--9--9--9--9--12--12--12--12--12--12--12--12--12--|
A|--9--9--9--9--9--9--9--9--9--12--12--12--12--12--12--12--12--12--|
E|--7--7--7--7--7--7--7--7--7--10--10--10--10--10--10--10--10--10—-|  X2


chorus
E|--10--10--10--10--10--10--10--10--10-- 7--7--7--7--7--7--7--7--7---|
B|--10--10--10--10--10--10--10--10--10-- 7--7--7--7--7--7--7--7--7---|
G|--11--11--11--11--11--11--11--11--11-- 8--8--8--8--8--8--8--8--8---|
D|--12--12--12--12--12--12--12--12--12-- 9--9--9--9--9--9--9--9--9---|
A|--12--12--12--12--12--12--12--12--12-- 9--9--9--9--9--9--9--9--9---|
E|--10--10--10--10--10--10--10--10--10-- 7--7--7--7--7--7--7--7--7---|


E|--10--10--10--10--10--10--10--10--10-- 7--7--7--7--7--7--7--7--7--|
B|--10--10--10--10--10--10--10--10--10-- 7--7--7--7--7--7--7--7--7--|
G|--11--11--11--11--11--11--11--11--11-- 8--8--8--8--8--8--8--8--8--|
D|--12--12--12--12--12--12--12--12--12-- 9--9--9--9--9--9--9--9--9--|
A|--12--12--12--12--12--12--12--12--12-- 9--9--9--9--9--9--9--9--9--|
E|--10--10--10--10--10--10--10--10--10-- 7--7--7--7--7--7--7--7--7--|



bridge
E|--x--x--x--x--x--x--x--x--x--x--x--x--x--x--x--x--x—-x--|
B|--x--x--x--x--x--x--x--x--x--x--x--x--x--x--x--x--x--x--|
G|--6--6--6--6--6--6--6--6--6--6--6--6--6--6--6--6--6--6--|
D|--7--7--7--7--7--7--7--7--7--7--7--7--7--7--7--7--7--7--|
A|--7--7--7--7--7--7--7--7--7--7--7--7--7--7--7--7--7--7--|
E|--5--5--5--5--5--5--5--5--5--5--5--5--5--5--5--5--5--5--|    X5







************************************

| /   slide up
| \   slide down
| h   hammer-on
| p   pull-off
| ~   vibrato
| +   harmonic
| x   Mute note
| b   Bend
| pb  Pre-bend
| br  Bend release
| pbr Pre-bend release
| brb Bend release bend

************************************
Suggest correction
Give kudos to tab author, rate the tab!
1 2 3 4 5
comments
print report bad tab
guest
You may want to rate the tab now too:
select rating
Wanna post a correction for this tab? Suggest correction