Oops, an error
Loading. Please wait.

Amar En El Campo bass

190 views 12 this week
no commentswrite comment
1 2 3 4 5
3 more votes to show rating
add to favorites
×
Save as Personal and add changes to this tab that will be seen only by you. Learn more ›
×
You can save this tab as Personal to edit and correct it or add notes. All changes will be seen only by you. Learn more »
launch autoscroll
font size
0
reset
guitar tuner
edit
Autoscroll
slow
fast
+/-
esc
set tempo
stop
Author
Difficulty
Title: Amar en el Campo
Artist: Teleradio Donoso
Album: Bailar y Llorar
Words: Alex Andwanter
Music: Alex Andwanter
Copyright: 2011 SGAE
Tabber: Agustín Lamberti
Tempo = 128
Electric Bass


[Intro]                           [Verse]
G |-------|-------|-------|-------|-------|-------|-------|-------|-------|-------|-------|-------|
D |-------|-------|-------|-------|-------|-------|-------|-------|-------|-------|-------|-------|
A |-------|-------|-------|-------|-------|-------|-------|-------|-------|-------|-------|-------|
E |-------|-------|-------|-------|-------|-------|-------|-------|-------|-------|-------|-------|


G |-------------------------------------------------------------------------------------------------------|
D |-----------------------------------------------------------------------------------------5-------------|
A |-----------------------------------------------------------------3-----------5-------------------------|
E |--1.----------------------1.----------------------3s-5-------------------------------------------------|

G |----------------------------|
D |-----5--2-------------------|
A |-----------5--3--5--0-------|
E |-----------------------3----|


G |-------------------------------------------------------------------------------------------------------|
D |-------------------------------------------------------------------------------------------------------|
A |-----------------------------------------------------------------3-----------5-------------------------|
E |--1.----------------------1.----------------------3s-5-----------------------------------3-------------|

                               [Chorus]
G |----------------------------|----------------------------|----------------------------|
D |-----5.----5.---------------|----------------------------|----------------------------|
A |----------------------------|--3--3--3--3--3--------3----|--3--------3--3--5--6--7----|
E |----------------------------|-----------------5--3-------|-----5--3-------------------|


G |----------------------------|----------------------------|
D |----------------------------|----------------------------|
A |--7--7--7--7--7--------7----|--7--------7--7--7--7--7----|
E |-----------------7--10------|-----7--10------------------|


G |----------------------------|----------------------------|
D |----------------------------|----------------------------|
A |--3--------3--3--------3----|--3--3--3--3--3--5--6--7----|
E |-----5--3--------5--3-------|----------------------------|


G |----------------------------|----------------------------|
D |----------------------------|----------------------------|
A |--7--7--7--7--7--------7----|--7--------7--7--7--7--7----|
E |-----------------7--10------|-----7--10------------------|


G |--------7-----5-------------|--------7-----5-------------|
D |--3--3-----------7--5--3L---|--3--3-----------7--5--3----|
A |----------------------------|----------------------------|
E |----------------------------|----------------------------|


G |--------4-----5--4----------|----------------------------|
D |--2--2-----2--------2--2----|--2--2--2--2--2--2--2--2----|
A |----------------------------|----------------------------|
E |----------------------------|----------------------------|


G |--------7-----5-------------|--------7-----5-------------|
D |--3--3-----------7--5--3L---|--3--3-----------7--5--3----|
A |----------------------------|----------------------------|
E |----------------------------|----------------------------|


G |----------------------------------------------------|----------------------------|
D |----------------------------------------------------|-----5----------------------|
A |--------------------------------------------5s-7L---|--7--------7-----5----------|
E |--3-----3-----3-----3-----3-----3-------------------|--------------------8--5----|


G |---------------------------|----------------------------|-------|----------------------------|
D |---------------------------|----------------------------|-------|----------------------------|
A |-----------------5--6--7---|----------------------------|-------|----------------------------|
E |--8.-----------------------|-----------------3--4--5----|-------|-----------------------8----|


G |----------------------------|----------------------------|-------|
D |----------------------------|----------------------------|-------|
A |-----------------5--6--7----|----------------------------|-------|
E |----------------------------|-----------------3--4--5----|-------|

                                                       [Verse]
G |--------------------------------14-14-14.-----------|-------|-------|-------|-------|
D |----------------------------------------------------|-------|-------|-------|-------|
A |----------------------------------------------------|-------|-------|-------|-------|
E |----------------------------------------------------|-------|-------|-------|-------|


G |-------------------------------------------------------------------------------------------------------|
D |-----------------------------------------------------------------------------------------5-------------|
A |-----------------------------------------3.----------------------5.------------------------------------|
E |--1.----------------------1s-5-------------------------------------------------------------------------|


G |----------------------------|
D |-----5--2-------------------|
A |-----------5--3--5--0-------|
E |-----------------------3----|


G |-------------------------------------------------------------------------------------------------------|
D |-----------------------------------------------------------------------------------------5-------------|
A |-----------------------------------------------------------------3-----------5-------------------------|
E |--1.----------------------1.----------------------3s-5-------------------------------------------------|


G |----------------------------|
D |-----5--2-------------------|
A |-----------5--3--5--0-------|
E |-----------------------3----|


G |-------------------------------------------------------------------------------------------------------|
D |-----------------------------------------------------------------------------------------5-------------|
A |-----------------------------------------------------------------3-----------5-------------------------|
E |--1.----------------------1.----------------------3s-5-------------------------------------------------|


G |----------------------------|
D |-----5--2-------------------|
A |-----------5--3--5--0-------|
E |-----------------------3----|


G |-------------------------------------------------------------------------------------------------------|
D |-------------------------------------------------------------------------------------------------------|
A |-----------------------------------------------------------------3-----------5-------------------------|
E |--1.----------------------1.----------------------3s-5-----------------------------------3-------------|


G |----------------------------|
D |-----5.----5.---------------|
A |----------------------------|
E |----------------------------|

  [Chorus]
G |----------------------------|----------------------------|
D |----------------------------|----------------------------|
A |--3--3--3--3--3--------3----|--3--------3--3--5--6--7----|
E |-----------------5--3-------|-----5--3-------------------|


G |----------------------------|----------------------------|
D |----------------------------|----------------------------|
A |--7--7--7--7--7--------7----|--7--------7--7--7--7--7----|
E |-----------------7--10------|-----7--10------------------|


G |----------------------------|----------------------------|
D |----------------------------|----------------------------|
A |--3--------3--3--3--3--3----|--3--3--3--3--3--5--6--7----|
E |-----5--3-------------------|----------------------------|


G |----------------------------|----------------------------|
D |----------------------------|----------------------------|
A |--7--------7--7--------7----|--7--7--7--7--7--7--7--7----|
E |-----7--10-------7--10------|----------------------------|


G |--------7-----5-------------|--------7-----5-------------|
D |--3--3-----------7--5--3L---|--3--3-----------7--5--3----|
A |----------------------------|----------------------------|
E |----------------------------|----------------------------|


G |--------4-----5--4----------|----------------------------|
D |--2--2-----2--------2--2----|--2--2--2--2--2--2--2--2----|
A |----------------------------|----------------------------|
E |----------------------------|----------------------------|


G |--------7-----5-------------|--------7-----5-------------|
D |--3--3-----------7--5--3L---|--3--3-----------7--5--3----|
A |----------------------------|----------------------------|
E |----------------------------|----------------------------|


G |----------------------------|----------------------------|
D |----------------------------|--5--5--5--5--5--5--5--5----|
A |----------------------------|----------------------------|
E |--3--3--3--3--3--3--3--3----|----------------------------|

  [Chorus]
G ||---------------------------|----------------------------|
D ||o--------------------------|----------------------------|
A ||o3--------3--3--------3----|--3--------3--3--5--6--7----|
E ||----5--3--------5--3-------|-----5--3-------------------|


G |----------------------------|---------------------------||
D |----------------------------|--------------------------o||
A |--7--------7--7--------7----|--7--------7--7--7--7--7--o||
E |-----7--10-------7--10------|-----7--10-----------------||


G |--------7-----5-------------|--------7-----5-------------|
D |--3--3-----------7--5--3L---|--3--3-----------7--5--3----|
A |----------------------------|----------------------------|
E |----------------------------|----------------------------|


G |--------4-----5--4----------|----------------------------|
D |--2--2-----2--------2--2----|--2--2--2--2--2--2--2--2----|
A |----------------------------|----------------------------|
E |----------------------------|----------------------------|


G |----------------------------|----------------------------|
D |----------------------------|----------------------------|
A |--5--5--5--5--5--5--5--5----|--5--5--5--5--5--5--5--5----|
E |---------------------------|----------------------------|


G |----------------------------------------------------|----------------------------|
D |----------------------------------------------------|-----5----------------------|
A |--------------------------------------------5s-7L---|--7--------7-----5----------|
E |--3-----3-----3-----3-----3-----3-------------------|--------------------8--5----|

G |---------------------------|----------------------------|-------|----------------------------|
D |---------------------------|----------------------------|-------|----------------------------|
A |-----------------5--6--7---|----------------------------|-------|----------------------------|
E |--8.-----------------------|-----------------3--4--5----|-------|-----------------------8----|


G |----------------------------|----------------------------|-------|-------|
D |----------------------------|----------------------------|-------|-------|
A |-----------------5--6--7----|----------------------------|-------|-------|
E |----------------------------|-----------------3--4--5----|-------|-------|


G |----------------------------|----------------------------|-------|
D |----------------------------|----------------------------|-------|
A |-----------------5--6--7----|----------------------------|-------|
E |--8.------------------------|-----------------3--4--5----|-------|



G |--------------------12-13-14------------------------|
D |----------------------------------------------------|
A |--------------------------------------------3-------|
E |--------------------------------3-----5-------------|



G |----------------------------|----------------------------|-------|-------|
D |----------------------------|----------------------------|-------|-------|
A |-----------------5--6--7----|----------------------------|-------|-------|
E |----------------------------|-----------------3--4--5----|-------|-------|

  [OUTRO]
G ||---------------------------|----------------------------|
D ||o--------------------------|----------------------------|
A ||o3--------3--3--5--6--7----|--7--------7--7--------7----|
E ||----5--3-------------------|-----7--10-------7--10------|



G |----------------------------|---------------------------||
D |--7--------7--7--------7----|--7--------7--7--------7--o||
A |-----7--10-------7--10------|-----7--10-------7--10----o||
E |----------------------------|---------------------------||



G |--------------------------------------------------5h----7h-5-------------------------------------------|
D |--7-----------7-----------7-----------7--------------------------------------7-----------5-------------|
A |-------------------------------------------------------------------------------------------------------|
E |-------------------------------------------------------------------------------------------------------|



G |----------------------------|----------------------------|----------------------------|
D |----------------------------|----------------------------|--7--------7--7--------7----|
A |--3--------3--3--5--6--7----|--7--------7--7--------7----|-----7--10-------7--10------|
E |-----5--3-------------------|-----7--10-------7--10------|----------------------------|



G |--------------------------------------------------5h----7h-5-------------------------------------------|
D |--7-----------7-----------7-----------7--------------------------------------7-----------5-------------|
A |-------------------------------------------------------------------------------------------------------|
E |-------------------------------------------------------------------------------------------------------|



G |----------------------------|----------------------------|
D |----------------------------|----------------------------|
A |--3--------3--3--5--6--7----|--7--------7--7--------7----|
E |-----5--3-------------------|-----7--10-------7--10------|



G |----------------------------------------------------|----------------------------------------------------|
D |--7.----------7.----------7-----------------7--7----|--------7--7--------7--7--7-------------------------|
A |----------------------------------------------------|--------------------------------7-------------------|
E |--------------------------------5.------------------|--------------------------------------5-------------|



G |----------------------------|----------------------------|----------------------------|
D |----------------------------|----------------------------|--7--------7--7--------7----|
A |--3--------3--3--5--6--7----|--7--------7--7--------7----|-----7--10-------7--10------|
E |-----5--3-------------------|-----7--10-------7--10------|----------------------------|



G |--------------------------------------------------5h----7h-5-------------------------------------------|
D |--7-----------7-----------7-----------7--------------------------------------7-----------5-------------|
A |-------------------------------------------------------------------------------------------------------|
E |-------------------------------------------------------------------------------------------------------|


G ||---------------------------|----------------------------|----------------------------|
D ||o--------------------------|----------------------------|--7--------7--7--------7----|
A ||o3--------3--3--5--6--7----|--7--------7--7--------7----|-----7--10-------7--10------|
E ||----5--3-------------------|-----7--10-------7--10------|----------------------------|


G |---------------------------|||
D |--7--------7--7--------7--o|||
A |-----7--10-------7--10----o|||
E |---------------------------|||


**************************************************

| L - tied note
| h - hammer on/pull off
| s - slide
| . - staccato

**************************************************

            
            
Suggest correction
Creating personal tab
Creating personal tab
You can edit any tab online and save it as your Personal.

You can edit, replace or remove any tab part or add personal notes – all changes will be seen only by you.

Personal tabs can be accessed anytime from any device, even offline.
Learn more »
Give kudos to tab author, rate the tab!
1 2 3 4 5
comments
print report bad tab
guest
You may want to rate the tab now too:
select rating
Wanna post a correction for this tab? Suggest correction