Oops, an error
Loading. Please wait.

Amar En El Campo Tab

170 views 1 this week
no commentswrite comment
1 2 3 4 5
3 more votes to show rating
add to favorites
launch autoscroll
font size
0
reset
how to read this tab
guitar tuner
Autoscroll
slow
fast
+/-
esc
set tempo
stop
Help us to improve Ultimate-Guitar.com Take our survey!
×
e------|
b------|
g------| Intro
d------|
a------|
E-1/---|


  Dm/F   F    G    G6  G
e--1-1--1----3-3--3-3--3----|
b--3-3--1----3-3--5-5--3----|
g--2-2--2----4-4--4-4--4----| fig.1
d--3-3--3----5-5--5-5--5----|
a---------------------------|
E---------------------------|

   C        Em       Am
e--3--------7--------5--------|
b--5--------8--------5--------|
g--5--------9--------5--------|  fig.2
d--5--------9----5-6-7--------|
a--3----5-6-7-----------------|
E-----------------------------|

   C        Em       Am
e--3--------7--------5----6-6-6-6-|
b--5--------8--------5----8-8-8-8-|
g--5--------9--------5----7-7-7-7-|  fig.3
d--5--------9----5-6-7----5-5-5-5-|
a--3----5-6-7---------------------|
E---------------------------------|

   C        Em       Am
e--3--------7--------5---3h5-----|
b--5--------8--------5-------5p3-|
g--5--------9--------5-----------|  fig.4
d--5--------9----5-6-7-----------|
a--3----5-6-7--------------------|
E--------------------------------|


Intro x2

Fig.1
No quiero vestirme,
Fig.1
me quiero quedar,
Fig.1
y me estoy cansando,
Fig.1
de la humanidad.

F
Si pescamos un auto,
        G
y nos vamos bien lejos,
F                   G                  C
cuantos kilometros deben bastar, para amar...
        Em
en el campo,
     C           Em
como antes, a su lado,
    C              Em
me conoces, soy de piedra.
Dm7
Sacas fotos de paisajes,
    G                           Fig.2- Fig.3
mientras piensas que debes decir.


Fig.1
No quiero quedarme,
Fig.1
me quiero vestir,
Fig.1
"porque niña? de que se trata todo esto,
Fig.1
sino de vernos a los ojos"

F
Si pescamos un auto,
        G
y nos vamos bien lejos,
F                   G                  C
cuantos ríos habrá que cruzar, para amar...
        Em
en el campo,
     C           Em
como antes, a tu lado,
    C              Em
me conoces, soy de piedra.
Dm7
Sacas fotos de paisajes,
    G                           C
mientras piensas que debes decir.
        Em
en el campo,
     C           Em
como antes, a tu lado,
    C              Em
me conoces, soy de piedra.
Dm7
Sacas fotos de paisajes,
    G                           Fig.2- Fig.4
mientras piensas que debes decir.


Solo
   C  Em  Am               C  Em   Am
e-----------------------------------------------------------|
b-13-13-13-13-13-13-13-13-13-13-13-13-13-13----3-3-3-3-3----|
g-x--x--x--x--x--x--x--x--x--x--x--x--x--x-----x-x-x-x-x----|
d-10-10-10-10-10-10-10-10-10-10-10-10-10-10----x-x-x-x-x----|
a----------------------------------------------3-3-3-3-3----|
E-----------------------------------------------------------|


   C      Em      Am
e-----------------------------------------------------------|
b-3-3-3-3-3-3-3-3----15-15-15-15-15-15-15-15-15-15-15-15-15-|
g-x-x-x-x-x-x-x-x-------------------------------------------|
d-x-x-x-x-x-x-x-x-------------------------------------------|
a-3-3-3-3-3-3-3-3-------------------------------------------|
E-----------------------------------------------------------|

   C       Em         Am
e---22>---17h20-17--------------------------------------|
b-----------------------15-15-15-15-15-15--------13-----|
g----------------------------------------------14--14---|
d-------------------------------------------------------|
a-------------------------------------------------------|
E-------------------------------------------------------|

  C                                   Em Am    C  Em
e--------------------------------|
b------13----13----13----13------|
g-12h14-12h14-12h14-12h14-12h14--|x6
d--------------------------------|
a--------------------------------|
E--------------------------------|

Am
e----15---15---------------------|
b-15>--15>--15>-13-15--13--------|
g--------------------14--14/2----|
d--------------------------------|
a--------------------------------|
E--------------------------------|

C  Em Am     C Em  Am
e-----------------------------------|
b----1---1---1---1---1---1---1---1--|
g-0h2-0h2-0h2-0h2-0h2-0h2-0h2-0h2---|      Hasta el final se repite?
d-----------------------------------|
a-----------------------------------|
E-----------------------------------|


G_freeman08@
Suggest correction
Give kudos to tab author, rate the tab!
1 2 3 4 5
comments
print report bad tab
guest
You may want to rate the tab now too:
select rating
Wanna post a correction for this tab? Suggest correction