Oops, an error
Loading. Please wait.

En Un Momento Chords

14 views 1 this week
no commentswrite comment
1 2 3 4 5
3 more votes to show rating
add to favorites
launch autoscroll
font size
0
reset
transpose
0
reset
simplify chords
display chords
guitar tuner
Autoscroll
slow
fast
+/-
esc
set tempo
stop
Help us to improve Ultimate-Guitar.com Take our survey!
×
Intro:
|------------------------------0----|
|----3-----3-----3-----3-----3--3-3-|
|-2-4---2-4---2-4---2-4---2-3-3--3--| x2
|-----------------------------------|
|-----------------------------------|
|-----------------------------------|

A)Re                          A7
  Quiero decirte que me quedé ciego
  A#                  F
  Pero me parece que ya estoy mejor

A)Una pequeña droga me puede ayudar
  No hay pastilla para lo que tengo yo

B)La#               F
  Por años hemos sido
  A#                    F
  Como una alarma de bomba
      A#sus4   D
  Vamos a explotar

Coro:
C)Sol             A
  En un momento me quiero quedar
  G                 A
  En otro me momento me quiero escapar
  G             A    A#
  En un momento nada es total

A)Quiero decirte que no tengo nada que decir
  Hasta cuando vamos a seguir así

A)No es casualidad que yo me sienta solo
  Me encantan los juegos estupidos

B)Por años hemos sido
  De ideas que la gente
  No va a notar

C)En un momento me quiero quedar
  En otro me momento me quiero escapar
  En un momento nada es total

Interlude:
|---------------------------------10-13-8/10-10-8-8/10-8/10-8/10/8-|
|-5/7-7-5/7-8-7-8-7---------11-13----------------------------------|
|------------------9-7-6-------------------------------------------|
|------------------------------------------------------------------|
|------------------------------------------------------------------|
|------------------------------------------------------------------|

B)Por años hemos sido
  De ideas que la gente
      A#sus4   D-D#
  No va a notar

Coro:
D)Sol#            A#
  En un momento me quiero quedar
  G#                A#
  En otro me momento me quiero escapar
  G#            A#   B
  En un momento nada es total

D)En un momento me quiero quedar
  En otro me momento me quiero escapar
  En un momento nada es total

D)En un día estoy feliz
  Al otro día me quiero morir
  G#            A#   B   E A#
  En un momento todo es total
----------------------------------------------------------------
En (A) utilizar:| En (C) utilizar(en (D) subir 1/2 tono):
                |
A#  F         | G  A
 1   0          | x   x
 3   1          | 3   5
 3   2          | 4   6
 3   3          | 0   0
 x   x          | 5   7
 x   x          | x   x
----------------------------------------------------------------
cualquier error en la transcripcion por favor informar a
bart_nilo@
Suggest correction
Give kudos to tab author, rate the tab!
1 2 3 4 5
comments
print report bad tab
guest
You may want to rate the tab now too:
select rating
Wanna post a correction for this tab? Suggest correction