Oops, an error
Loading. Please wait.

La Carta Chords

16 views 1 this week
no commentswrite comment
1 2 3 4 5
3 more votes to show rating
add to favorites
launch autoscroll
font size
0
reset
transpose
0
reset
simplify chords
display chords
guitar tuner
Autoscroll
slow
fast
+/-
esc
set tempo
stop
Help us to improve Ultimate-Guitar.com Take our survey!
×
Hola a todos pues este es mi primera contribucion
Espero q no tenga errores, pero si los tiene avisenme y yo lo corrijo


Fig. 1
Am                   D
Cuando Te Fuiste Tan Lejos
Am                  D
Supe Que No Ibas A Volver
Em                  A7
Voy A Olvidarte Muy Luego
G          D         G7  C
De Hecho, Ya Te Olvidé.


e|----------------------
b|----------0-----------
g|3-2-0-2-3--3-2-0------
d|-----------------0p2-2
a|----------------------
E|----------------------


Fig. 1
Una Mañana Despierto
No Tengo Nada Que Hacer
Pájaros Cantan,Que Me Dicen:
Sigo Pensando En Usted.

Fig. 2
Em                  F#m B7
La Carta Que Quería Que Me Escribieras
Em           F#m B7
Nunca Me Llegó.

Cm     G
No Ves Nada
Em   Fm          C
O Te Niegas A Entender.


   Am                D
e|-7-10-12-7---------7-10-
b|-----------10-8-10------
g|------------------------ (x2)

   Em                A7
e|-7-10-12-7---------7-10-9
b|-----------10-8-10-------
g|-------------------------

   G          D
e|-7-10-12--------------------
b|---------10/12-11-10--------
g|---------------------9-11-12


Fig. 2
La Carta Que Quería
Que Me Escribieras
Nunca Me Llegó.

Cm    G
No Sé Nada
Em   Fm          (x)    C
Y Te Niegas A Volver.

 (x)

e|-0---
b|-1---
g|-1---
d|-0---
a|-3---
E|-0---

este ultimo acorde se los dejo a su consideración
Suggest correction
Give kudos to tab author, rate the tab!
1 2 3 4 5
comments
print report bad tab
guest
You may want to rate the tab now too:
select rating
Wanna post a correction for this tab? Suggest correction