Oops, an error
Loading. Please wait.

La Literatura Chords

20 views 1 this week
no commentswrite comment
1 2 3 4 5
2 more votes to show rating
add to favorites
×
Save as Personal and add changes to this tab that will be seen only by you. Learn more ›
×
You can save this tab as Personal to edit and correct it or add notes. All changes will be seen only by you. Learn more »
save as personal
new!
launch autoscroll
font size
0
reset
transpose
0
reset
display chords
guitar tuner
Autoscroll
slow
fast
+/-
esc
set tempo
stop
Strumming
There is no strumming pattern for this song yet. and get +5 IQ
D x4

A)Re
  Una vez que me dijeron
  Gm
  la literatura es buena
  C           F         D D
  Mata el alma, la envenena
  D
  De qué literatura habla?
  Gm
  No dije pero lo pensé
  C           F        D x2
  No se demoró en responder

Coro:
B)Sim
  Me dijo corre
                 Gm                  D
  Porque aunque te digan que va a mejorar
            Em
  No es verdad
  Bm                  Gm                   D D
  Huye porque tiene una fiesta que no va a parar


A)De libros y de fiestas hablas
  No entiendo nada nada nada
  Por qué no te explicas de una vez?
  No dices lo que piensas y
  no sientes lo que dices
  Por qué sonríes ante lo que mencioné?

Coro:
B)Me dijo corre
  Porque aunque te digan que va a mejorar
  No es verdad
  Huye porque son fantasmas que se ven de día

Inter:
C)Sim         Gm     D
  Dijo lo que yo ya sabía
             Em
  Pero igual duele
  Bm          Gm             D  D A Em A x2
  Dijo lo que nadie quiere escuchar

Instrumental: Sim Solm Re Mim Sim Solm Re Re

B)Me dijo corre
  Porque aunque te digan que va a mejorar
  No es verdad
  Huye porque tiene una fiesta que no va a parar

B)Me dijo corre
  Porque aunque te digan que va a mejorar
  No es verdad
  Huye porque son fantasmas que se ven de día
  D           Gm
  Me dijo corre

En el coro una guitarra hace esto:
|-----12-14-12-----------12-14-12-----------12-14-12--14-----12-14-12-----|
|12-15--------15-12-12-15--------15-12-12-15--------15--12-15--------15-12|
|-------------------------------------------------------------------------|
|-------------------------------------------------------------------------|
|-------------------------------------------------------------------------|
|-------------------------------------------------------------------------|

|-----12-14-12-----------12-14-12-----------|
|12-15--------15-12-12-15--------15-12/15-15|
|-------------------------------------------|
|-------------------------------------------|
|-------------------------------------------|
|-------------------------------------------|

--------------------------------------------------------------
cualquiera error en la transcripcion enviar a
bart_nilo@
Suggest correction
Give kudos to tab author, rate the tab!
1 2 3 4 5
comments
print report bad tab
guest
Wanna post a correction for this tab? Suggest correction