Oops, an error
Loading. Please wait.

Pitica Bass

28 views 1 this week
no commentswrite comment
1 2 3 4 5
3 more votes to show rating
add to favorites
launch autoscroll
font size
0
reset
guitar tuner
×
Best way to learn
"Pitica"
Autoscroll
slow
fast
+/-
esc
set tempo
stop
Aqui mi 2º aporte =) !!!
algun problema por favor avisarme o hacermelo saber porfa =)!!
:] espero qe les guste... hay va!!

intro
[00:10]
G|------------|    G|----------------------|
D|------------|    D|----------------------|
A|---33333333-|x4  A|-11111111111111x------|
E|-3----------|    E|----------------------|

Verso
G|-----------------------------------------------------------|
D|-----------------------------------------------------------|
A|1-1-1-1-1-1-1-1-01-1-1-1-1-1-1-1-01-1-1-1-1-1-1-1-33333333-|
E|-----------------------------------------------------------|

Coro
G|------------------------|  G|--------------------|
D|------------------------|  D|--------------------|
A|-66666666--------1-0-1--|  A|-2~2~----------0-0--|
E|----------2-2-22--------|  E|-------0-0-00---2---|

Despues del coro:
Veo... uun..
G|--------------------|   G|--------------------------|
D|--------------------|   D|--------------------------|
A|1~~-------6~~-------|x2 A|1~~-------6~~-------1-0~~-|
E|-----3~~-------4~~--|   E|-----3~~-------4-5~-------|

G|--------------------|
D|--------------------|((entretiempo antes de volver al verso))*
A|-11111111111x0101/3-|
E|--------------------|

[02:57]
G|-------------------------------------------------------------|
D|-------------------------------------------------------------|
A|1-1-1-1-1-0101----------------6-6-6-6-6-0606-----------------|
E|---------------3-3-3-3-3-0303----------------4-4-4-4-4-0404--|
 Se repite esto varias veces

G|-----------------------------------|
D|-----------------------------------|
A|----------------------1~~~~~~~~----|
E|-44444444-333333-0303--------------|
Suggest correction
Give kudos to tab author, rate the tab!
1 2 3 4 5
comments
print report bad tab
guest
You may want to rate the tab now too:
select rating
Wanna post a correction for this tab? Suggest correction