Oops, an error
Loading. Please wait.

Pitica Tab

32 views 1 this week
no commentswrite comment
1 2 3 4 5
3 more votes to show rating
add to favorites
launch autoscroll
font size
0
reset
how to read this tab
guitar tuner
Autoscroll
slow
fast
+/-
esc
set tempo
stop
Help us to improve Ultimate-Guitar.com Take our survey!
×
Introducción:
e||----------------------------------|
B||-3---3---3---3---3---3---3---3----|
G||-3---3---3---3---3---3---3---3----|
D||-3---4---3---4---5---4---3---4----|
A||-3---3---3---3---3---3---3---3----|
E||----------------------------------|
    ^   ^   ^   ^   *   ^   ^   ^
    8x  8x 8x   8x 8x   8x  8x  8x
*Ahí ya empieza a tocar el bajo de la canción
(Simplifiqué, 8 veces cada parte indicada en la introducción)


********Antes de que vean el resto de la cancion:
e||-------||
B||---3---||
G||---3---||
D||---4---||
A||---3---||
E||-------||
No sé si existirá como un acorde de verdad, pero le llamaremos
******LaRaro********, jaja, el cual se toca 8 veces.

Los Riffs de la segunda guitarra los pondré al final como
tablatura.


        La# (Conteo de Batería)

A) No es el efecto de la, la droga suave cuando,
   LA#

   yo sé que efecto tiene
   LA#                      LaRaro

   No es el sonido de la, Pitica Ubilla a bailar,
   LA#

   cuando ella baila mueve
   LA#                      LaRaro


B) Tus palabras, no sirven nada
   RE#m          FA#       LA#   + Riff1 junto Riff2(3ºguitarra)

   No hacen daño, no digas nada
   RE#m           FA#       LA#  + Riff1 junto Riff2(3ºguitarra)


C) Yo sé lo que ves,
   SI    MI     FA#
                 ^
               +Riff3

   Cuando te ves
   SI    MI     FA#   FA
                 ^
               +Riff3


A) Hay algo extraño en él, pasado oscuro (de mul)
   LA#

   yo sé que efecto tiene  -saber que te conviene-
   LA#                          LaRaro

   No es un delirio mío, algo está pasando, todo suena porque
   LA#

   - no es un delirio suyo -
       LaRaro


C) Yo sé lo que ves,
   Cuando te ves

D) Veo,  tú,    antes,  bueno
   LA#   SOLm   RE#m    SOL#

   No sé,  por qué, quiero una noche
   LA#     SOLm     RE#m       SOL#/SOL#aum

   tibia y sin luz
   LA#m        LA


   RE#m / FA# / LA# + Riff1 junto Riff2


A) Él tiene el sueño de un patriota de verdad cuando se va a bailar
   LA#

   - Pitica Ubilla baila -
      LaRaro


   Sigue pensando al fingir,europeista de mierda,las bomba suenan porque
   LA#

   - El mundo se va a acabar -
      LaRaro


C) Yo sé lo que ves,
   Cuando te ves


D) Veo,  tú, antes, bueno
   LA#  SOLm  RE#m  SOL#

   No sé,  por qué, quiero que volvamos
   LA#      SOLm    RE#m       SOL#
                                              2x + Riff4


     SOL# + Riff5

     LA#

Fin.-


Riff1
e||----------------------------------6-----------|
B||-----------------------------6/8-----6--8-----|
G||-8-8-7-7-6-6-5-5--3----6/7--------------------|
D||----------------------------------------------|
A||----------------------------------------------|
E||----------------------------------------------|


Riff2(Lo hace una tercera guitarra, se puede omitir
ya que no es muy notorio para el oido principiante cualquiera)
e||---------------------------|
B||---------------------------|
G||---------------------------|
D||-8-8-7-7-6-6--4-4--4-------|
A||---------------------------|
E||---------------------------|


Riff3(Puedes hacerlo donde mas te acomode, con tal de que suene
igual)
e||-----------------------------|
B||-----------------------------|
G||-----------------------------|
D||-------------------4---------|
A||-------------4--6-----4--6---|
E||-2-----2--6------------------|


Riff4
e||---------------------------------|---------------------------------
B||---------------------------------|---------------------------------
G||---------------------------------|---------------------------------
D||-3---3/5---3---3/5--3--5--5--3---|--3---3/5---3---3/5--3--5--5--3--
A||---------------------------------|---------------------------------
E||---------------------------------|---------------------------------

|----------------------------------|---------------------------------||
|----------------------------------|---------------------------------||
|----------------------------------|---------------------------------||
|--1---1/3---1---1/3--1--3--3--1---|--1---1/3---1---1/3--1--3--3--1--||
|----------------------------------|---------------------------------||
|----------------------------------|---------------------------------||


Riff5
e||-----------------------|-----------------------|
B||-----------------------|-----------------------|
G||--5--6--6--5--5--3--3--|--5--6--6--5--5--3--3--|
D||-----------------------|-----------------------|
A||-----------------------|-----------------------|
E||-----------------------|-----------------------|


Y eso es todo, practicarla arto para aprenderla.
Es mi primer tab, ojala me haya quedado claro.
Saludos a todos los que ven esto, a mi polola Valeria
y a todos los amantes de la buena música.

Esta canción no estaba en ninguna parte, así que la hice yo.
LA saque 100% A oido.
Bueno eso, ojala les sirva ;)
cualquier cosa a mi mail: 

Diego Antonio.-
(Baku)
Suggest correction
Give kudos to tab author, rate the tab!
1 2 3 4 5
comments
print report bad tab
guest
You may want to rate the tab now too:
select rating
Wanna post a correction for this tab? Suggest correction