Oops, an error
Loading. Please wait.

Days chords

5,780 views 24 this week
3 commentsread comments
1 2 3 4 5
x 4
add to favorites
×
Save as Personal and add changes to this tab that will be seen only by you. Learn more ›
×
You can save this tab as Personal to edit and correct it or add notes. All changes will be seen only by you. Learn more »
launch autoscroll
font size
0
reset
transpose
0
reset
display chords
guitar tuner
edit
Autoscroll
slow
fast
+/-
esc
set tempo
stop
Strumming
There is no strumming pattern for this song yet. and get +5 IQ

This part repeats throughout song
e|---------------------------------------------------------------------------|
B|---------------------------------------------------------------------------|
G|---------------------------------------------------------------------------|
D|-2-0-2-2-0-2-4-5-7-9-7-4-0-------------------------------------------------|
A|---------------------------------------------------------------------------| 
E|---------------------------------------------------------------------------|


Bm                   A     Bm               A
Up on the high, high hills with my floating friend 
Bm               A       G               A
Watching all the silver  no one can ever spend
Bm                      A    Bm               A
I feel the touch of her hand and all it will erase
Bm                 A                    G                 A        
These footprints I followed though they followed my every pace 
Bm A   Bm A   Bm A     G                A
Days,  days,  days  be more than all we have
Bm                   A     Bm                    A
No matter how much I cross I always see the same stream
Bm                       A                G             A              
I'm standing up on these bridges that are standing in a dream
Bm A   Bm A   Bm A     G                A
Days,  days,  days  be more than all we have
Bm A   Bm A   Bm A
Days,  days,  days …………..    

            
            
Suggest correction
Creating personal tab
Creating personal tab
You can edit any tab online and save it as your Personal.

You can edit, replace or remove any tab part or add personal notes – all changes will be seen only by you.

Personal tabs can be accessed anytime from any device, even offline.
Learn more »
comments
print report bad tab
3 comments total.
0 reply
Kegan 10 Aug 14, 2008 05:45 PM

the last note on the main riff should be one octave higher: the third fret of the 'b' string. Also, the riff was recorded played backwards on the album, then reversed, so the notes fade in instead of out. At least, according to Richard's Website.

+1 reply
Ecilsemoh 12 Aug 08, 2013 06:57 AM

This sounds closer to my ear:

e|-----------------------------------------------------------------------|
B|---------------------------3-------------------------------------------|
G|-----------------0-2-4-2-----------------------------------------------|
D|-2---0-2-2-0-2-4---------4---------------------------------------------|
A|-----------------------------------------------------------------------|
E|-----------------------------------------------------------------------|

+1 reply
jlbrown84 10 Nov 03, 2013 03:58 PM

The original tab is way off. Ecilsemoh is much closer, but this sounds even better to me:

e|-----------------------------------------------------------------------|
B|-----------------------------3-----------------------------------------|
G|-------------------2-4-2-----2-----------------------------------------|
D|-2---0-2-2-0-2-4-5--------0--------------------------------------------|
A|-----------------------------------------------------------------------|
E|-----------------------------------------------------------------------|

Also the chords during the verse are Em D, then it goes into Bm A. Might do a full tab of this eventually, it's a lot of fun to play.

guest
You may want to rate the tab now too:
select rating
Wanna post a correction for this tab? Suggest correction