Oops, an error
Loading. Please wait.

Glory Bass Tab

341 views 1 this week
no commentswrite comment
1 2 3 4 5
please rate
add to favorites
launch autoscroll
font size
0
reset
guitar tuner
Autoscroll
slow
fast
+/-
esc
set tempo
stop
Help us to improve Ultimate-Guitar.com Take our survey!
×
Author
Glory
Television
Bass Tab
Bassist: Fred Smith

124BPM, 4/4

Intro
                                                               3x
||--------------|---------------|-------------|----------------||
||o-------/9----|-------/9------|-------/9----|-------/9------o||
||o--5--5-------|--5--5-----9\--|--5--5-------|--5--5-----9\--o||
||--------------|---------------|-------------|----------------||

Verse

||--------------|---------------|-------------|----------------||
||o-------/9----|-------/9------|-------/9----|-------/9------o||
||o--5--5-------|--5--5-----9\--|--5--5-------|--5--5-----9\--o||
||--------------|---------------|-------------|----------------||

Pre-Chorus

|--------------|-----------------|--------------|-----------------|
|-------/11----|-------/11-------|-------/11----|-------/11-------|
|--7--7--------|--7--7------11\--|--7--7--------|--7--7------11\--|
|--------------|-----------------|--------------|-----------------|

Chorus

||----------------|--------------|---------------|----------------||
||o---------------|--------------|---------------|---------------o||
||o-------/9------|--------------|-------/9------|---------------o||
||---5--5-----9\--|--5--5--2-0-2-|--5--5-----9\--|--5--5--2-0-2---||

|-------------|---------------|-------------|---------------|
|-------/9----|-------/9------|-------/9----|-------/9------|
|--5--5-------|--5--5-----9\--|--5--5-------|--5--5-----9\--|
|-------------|---------------|-------------|---------------|

Verse

||--------------|---------------|-------------|----------------||
||o-------/9----|-------/9------|-------/9----|-------/9------o||
||o--5--5-------|--5--5-----9\--|--5--5-------|--5--5-----9\--o||
||--------------|---------------|-------------|----------------||

Pre-Chorus

|--------------|-----------------|--------------|-----------------|
|-------/11----|-------/11-------|-------/11----|-------/11-------|
|--7--7--------|--7--7------11\--|--7--7--------|--7--7------11\--|
|--------------|-----------------|--------------|-----------------|

Chorus

||----------------|--------------|---------------|----------------||
||o---------------|--------------|---------------|---------------o||
||o-------/9------|--------------|-------/9------|---------------o||
||---5--5-----9\--|--5--5--2-0-2-|--5--5-----9\--|--5--5--2-0-2---||

Solo

||--------------|---------------|-------------|----------------||
||o-------/9----|-------/9------|-------/9----|-------/9------o||
||o--5--5-------|--5--5-----9\--|--5--5-------|--5--5-----9\--o||
||--------------|---------------|-------------|----------------||

|--------------|-----------------|--------------|-------------------|
|-------/11----|-------/11-------|-------/11----|---------/11-------|
|--7--7--------|--7--7------11\--|--7--7--------|--7-9-11------11\--|
|--------------|-----------------|--------------|-------------------|

Chorus/Ending

||----------------|--------------|---------------|----------------||
||o---------------|--------------|---------------|---------------o||
||o-------/9------|--------------|-------/9------|---------------o||
||---5--5-----9\--|--5--5--2-0-2-|--5--5-----9\--|--5--5--2-0-2---||

||----------------|---------------|---------------|-----------------||
||o---------------|--7----------7-|---------------|--7----------7--o||
||o-------/9------|----9-7--7-9---|-------/9------|----9-7--7-9----o||
||---5--5-----9\--|---------------|--5--5-----9\--|-----------------|| til fade
Suggest correction
Give kudos to tab author, rate the tab!
1 2 3 4 5
comments
print report bad tab
guest
You may want to rate the tab now too:
select rating
Please do not post tabs as comments. Select "correction" instead!