Oops, an error
Loading. Please wait.

Marquee Moon tab

version 1
version 1

Whole song

Interactive

45,433 views 33 this week
6 commentsread comments
1 2 3 4 5
x 7
add to favorites
×
Save as Personal and add changes to this tab that will be seen only by you. Learn more ›
×
You can save this tab as Personal to edit and correct it or add notes. All changes will be seen only by you. Learn more »
launch autoscroll
font size
0
reset
how to read this tab
guitar tuner
edit
Autoscroll
slow
fast
+/-
esc
set tempo
stop
Author
Unregistered
Key: 
D mixolydian (D E F# G A B C)


[Tom]

          Bm
e|---7-p-5-h-7-p-5-h-7-p-5-h-7-p-5-h-7-------|
B|---7-p-5-h-7-p-5-h-7-p-5-h-7-p-5-h-7-------|
G|-------------------------------------------|
D|-------------------------------------------|
A|-------------------------------------------|
E|-------------------------------------------|


[Richard]

e|-------------------------------------------|
B|---3---3---3---3---3---3---3---3-----------|
G|---4---4---4---4---4---4---4---4-----------|
D|-------------------------------------------|
A|-------------------------------------------|
E|-------------------------------------------|


[Tom]

                             D7
e|-------------------------------------------|
B|---7-p-5-h-7-p-5-h-7-p-5-h-7-p-5-h-7-------|
G|---7-p-5-h-7-p-5-h-7-p-5-h-7-p-5-h-7-------|
D|-------------------------------------------|
A|-------------------------------------------|
E|-------------------------------------------|


[Richard]

e|-------------------------------------------|
B|---3---3---3---3---3---3---3---3-----------|
G|---2---2---2---2---2---2---2---2-----------|
D|-------------------------------------------|
A|-------------------------------------------|
E|-------------------------------------------|


I don't think I've got the timing right above, so you'll have to listen
real closely.  Richard's part goes for a beat or a part of a beat before
Tom's.  Most of the song is this riff.  The second solo (jam) is over
that.

Little scale part:


[Tom]

  Play (x3)                  last time
e|--------------10-8-7------|-----10-8-7-------------|
B|------7-8-10-7------10-8-7|-7-8--------10-8-7------|
G|--sl/9--------------------|--------------------9-7-|
D|--------------------------|------------------------|
A|--------------------------|------------------------|
E|--------------------------|------------------------|


[Richard]

Em     C     Am     Am


I miss remember the chords under this scale, so check them.

Then the Life in the hive part (listen to vocal):

|D    C|, with someone playing notes from the D mixolydian scale (Tom?),

ended with Gmaj7 chord and the following riff (Tom?):


[Tom]

e|------------8-p-7--------------------------|
B|------------------7------------------------|
G|--------------------7----------------------|
D|-------------------------------------------|
A|-------------------------------------------|
E|-------------------------------------------|

The first solo (Tom) is a set of three scales with pauses in between, played
with alone, each in D mixolydian.  The first starts on 15th fret D on the
B string and ends on 9th fret F# on the A string.  It covers all notes in
between.  The second starts on 10th fret A on the B string and goes to
5th fret D on the A string (then slides to 9th fret F#).  Listen closely to
the song to catch the repeats.  I don't have a guitar here, so I can't
check it to be sure and can't exactly remember what to do here.

The third part is:

[Tom]
                                                      v
e|-----19-19-19-19-17-15-17-19-17-15-17-19-17-15-17---22----|
B|----------------------------------------------------------|
G|----------------------------------------------------------|
D|----------------------------------------------------------|
A|----------------------------------------------------------|
E|----------------------------------------------------------|

("v" indicates staccato with pause)


[Tom]

e|------------8-p-7--------------------------|
B|------------------7------------------------|
G|--------------------7----------------------|
D|-------------------------------------------|
A|-------------------------------------------|
E|-------------------------------------------|


[Verse 2]
(same as verse 1)

Second solo is over the main riff and is in D mixolydian. It starts slowly
and builds to a massive climax. The solo is one massive improve Tom goes
pretty crazy through this part. Afterwards there are some chords, but I
can't remember what they are nothing complicated, however.



************************************

| h  Hammer-on
| p  Pull-off
| /  slide

************************************

            
            
Suggest correction
Creating personal tab
Creating personal tab
You can edit any tab online and save it as your Personal.

You can edit, replace or remove any tab part or add personal notes – all changes will be seen only by you.

Personal tabs can be accessed anytime from any device, even offline.
Learn more »
comments
print report bad tab
6 comments total. Showing first comments. show 1 bad comment
0 reply
arykotlik 31 Feb 01, 2008 07:35 AM

hey, hes not saying nothing about the tunning, he says that the song is written in D mixolydian. its standard tunning

-1 reply
arykotlik 31 Feb 01, 2008 07:36 AM

im posting another one, its sounds better to me. Its based on this tab, ill put that in the tab :P

guest
Wanna post a correction for this tab? Suggest correction