Oops, an error
Loading. Please wait.

See No Evil tab

version 2
version 2

Whole song

Interactive

7,822 views 57 this week
3 commentsread comments
1 2 3 4 5
x 5
add to favorites
×
Save as Personal and add changes to this tab that will be seen only by you. Learn more ›
×
You can save this tab as Personal to edit and correct it or add notes. All changes will be seen only by you. Learn more »
launch autoscroll
font size
0
reset
how to read this tab
guitar tuner
edit
Autoscroll
slow
fast
+/-
esc
set tempo
stop
Author
Difficulty
Artist: Television
Song: "See No Evil"
Album: Marquee Moon (1977)



Standard Tuning



Interlude:
Guitar L (Tom Verlaine)
e|------------------------------------------------||
B|------------------------------------------------||
G|------------------------------------------------|| x 4
D|----------5--5-----5--------------5--5-----5----||
A|----------5--5-----5--------------5--5-----5----||
E|----------3--3-----3--------------3--3-----3----||



Interlude:
Guitar R (Richard Lloyd)
e|------------------------------------------------||
B|-------0-h1-p0-----------------0-h1-p0----------||
G|-0--2--0--0-----2--0-----0--2--0--0-----2--0----|| x 2
D|-0--3-----------3--0-----0--3-----------3--0----||
A|------------------------------------------------||
E|------------------------------------------------||



Verse:
Guitar I
e|------------------------------------------------||
B|------------------------------------------------||
G|------------------------------------------------|| x 2
D|----------5--5-----5--------------5--5-----5----||
A|----------5--5-----5--------------5--5-----5----||
E|----------3--3-----3--------------3--3-----3----||
+
e|------------------------------------------------|
B|-------------------------------------11-11----11|
G|-------------------------------------9--9-----9-|
D|----------3--3-----3--------3--------10-10----10|
A|----------3--3-----3--------3--------10-10----10|
E|----------1--1-----1--------1-------------------|
+
e|------------------------------------------------|
B|-11---------------------------------------------|
G|-9----------------------------------------------|
D|-10-------5--5-----5--------------5--5-----5----|
A|-10-------5--5-----5--------------5--5-----5----|
E|----------3--3-----3--------------3--3-----3----|



Verse (variation):
Guitar I
e|------------------------------------------------||
B|------------------------------------------------||
G|------------------------------------------------|| x 2
D|----------5--5-----5--------------5--5-----5----||
A|----------5--5-----5--------------5--5-----5----||
E|----------3--3-----3--------------3--3-----3----||
+
e|-------------------------------------6--6-----6-|
B|-------------------------------------5--5-----5-|
G|-------------------------------------5--5-----5-|
D|----------3--3-----3--------3--------5--5-----5-|
A|----------3--3-----3--------3--------3--3-----3-|
E|----------1--1-----1--------1-------------------|
+
e|-6----------------------------------------------|
B|-5----------------------------------------------|
G|-5----------------------------------------------|
D|-5--------5--5-----5--------------5--5-----5----|
A|-3--------5--5-----5--------------5--5-----5----|
E|----------3--3-----3--------------3--3-----3----|



Verse:
Guitar R
e|------------------------------------------------||
B|-------0-h1-p0-----------------0-h1-p0----------||
G|-0--2--0--0-----2--0-----0--2--0--0-----2--0----|| x 2
D|-0--3-----------3--0-----0--3-----------3--0----||
A|------------------------------------------------||
E|------------------------------------------------||
+
e|------------------------------------------------|
B|-------0-h1-p0--------------3--5-b6-r3--5--5----|
G|-0--2--0--0-----2--2-----5--3--5-b6-r3--5--5----|
D|-0--3-----------3--3-----5----------------------|
A|------------------------------------------------|
E|------------------------------------------------|
+
e|------------------------------------------------||
B|-------0-h1-p0-----------------0-h1-p0----------||
G|-0--2--0--0-----2--0-----0--2--0--0-----2--0----|| x 3
D|-0--3-----------3--0-----0--3-----------3--0----||
A|------------------------------------------------||
E|------------------------------------------------||
+
e|------------------------------------------------|
B|-------0-h1-p0--------------3--5-b6-r3--5--5----|
G|-0--2--0--0-----2--2-----5--3--5-b6-r3--5--5----|
D|-0--3-----------3--3-----5----------------------|
A|------------------------------------------------|
E|------------------------------------------------|
+
e|------------------------------------------------|
B|-------0-h1-p0-----------------0-h1-p0----------|
G|-0--2--0--0-----2--0-----0--2--0--0-----2--0----|
D|-0--3-----------3--0-----0--3-----------3--0----|
A|------------------------------------------------|
E|------------------------------------------------|



Chorus:
Guitar L:
e|------------------------------------------------||
B|----------10----------------------8-------------||
G|----------7-----------------------7-------------|| x 3
D|----------0-----------------------0-------------||
A|----------x-------------------------------------||
E|---------(10)-----------------------------------||
+
e|------------------------------------------------|
B|------------------------------------------------|
G|------------------------------------------------|
D|----------5--------5--------------5--------5----|
A|----------5--------5--------------5--------5----|
E|----------3--------3--------------3--------3----|
+
e|------------------------------------------------|
B|------------------------------------------------|
G|----------------------------9-------------------|
D|----------5--------5--------10------------------|
A|----------5--------5--------10------------------|
E|----------3--------3--------8-----------8--8--7-|
+
e|---------------------------------|
B|---------------------------------|
G|---------------------------------|
D|---------------------------------|
A|---------------------------------|
E|-7--6--6--5--5--0--0--1--1--2--2-|



Guitar R
e|----------3--------3-----------3-----------3----|
B|----------------0-----------0-----------0-------|
G|-0--2-p0-----5-----------5-----------5----------|
D|-0--3-p0----------------------------------------|
A|------------------------------------------------|
E|------------------------------------------------|
+
e|-------3-----------3-----------3-----------3----||
B|----0-----------0-----------0-----------0-------||
G|-5-----------5-----------5-----------5----------|| x 3
D|------------------------------------------------||
A|------------------------------------------------||
E|------------------------------------------------||
+
e|-------3-----------3----------------------------|
B|----0-----------0-----------5-------------------|
G|-5-----------5-----------5--5-------------------|
D|----------------------------5-------------------|
A|------------------------------------------------|
E|------------------------------------------------|
+
e|------------------------|
B|------------------------|
G|------------------------|
D|------------------------|
A|------------------------|
E|------------------------|



Solo:
Guitar L plays Verse during the Solo.



Solo: (This is the first part of Richard Lloyd's solo, 
but you'll have to figure out the rest on your own.)
Guitar R
e|----------------------------------12------------|
B|-------12-13-------12----12-13-15----------15---|
G|-12-14------------------------------------------|
D|------------------------------------------------|
A|------------------------------------------------|
E|------------------------------------------------|
+
e|----12-13-15-------13----13-15-17-19-------17---|
B|-15---------------------------------------------|
G|------------------------------------------------|
D|------------------------------------------------|
A|------------------------------------------------|
E|------------------------------------------------|
+
e|----19----20----20-20----19-15-------15h17p15---|
B|------------------------------------------------|
G|------------------------------------------------| etc.
D|------------------------------------------------|
A|------------------------------------------------|
E|------------------------------------------------|



Outro:
Guitar L
e|-------------6--6-----6--6----------------------||
B|-------------5--5-----5--5----------------------||
G|-------------5--5-----5--5----------------------|| x 14
D|-------------5--5-----5--5--------5--5-----5----||
A|-------------3--3-----3--3--------5--5-----5----||
E|----------------------------------3--3-----3----||
+
variation
e|------------------------------------------------|
B|-------------11-11----11-11---------------------|
G|-------------9--9-----9--9----------------------|
D|-------------10-10----10-10-------5--5-----5----|
A|-------------x--x-----x--x--------5--5-----5----|
E|-------------8--8-----8--8--------3--3-----3----|



Outro:
Guitar R
e|------------------------------------------------||
B|----3--5-b6-r3-----------------0-h1-p0----------||
G|-5--3--5-b6-r3--5--5-----0--2--0--0-----2--0----|| x 14
D|-5--------------5--5-----0--3-----------2--0----||
A|------------------------------------------------||
E|------------------------------------------------||



Outro:
Guitar Overdub
e|------------------------------------------------||
B|------------------------------------------------||
G|------------------------------------------------|| x 14
D|------------------------------------------------||
A|------------------------------------------------||
E|------(3)/8--8--7--7--6--6--5--5--3--3-----3----||



Song Structure:

Guitar L:
Interlude x 2
Verse x 2
Chorus
Interlude
Verse x 2
Chorus
Solo (Verse x 2)
Verse x 2
Chorus
Interlude
Outro w/ long fade out

Guitar R:
Interlude
Verse
Chorus
Interlude
Verse
Chorus
Solo
Verse
Chorus
Interlude
Outro w/ long fade out



That's it.
Please feel free to leave comments, corrections, requests, and suggestions. Cheers!
-Bennyshambles78-



            
            
Suggest correction
Creating personal tab
Creating personal tab
You can edit any tab online and save it as your Personal.

You can edit, replace or remove any tab part or add personal notes – all changes will be seen only by you.

Personal tabs can be accessed anytime from any device, even offline.
Learn more »
comments
print report bad tab
3 comments total.
0 reply
bennyshambles78 4,121 Sep 01, 2012 09:01 PM, edited on June 19 2014, 02:50 pm

I was a bit off on the first part of the solo so here's my own correction:SoloGuitar 1 (Richard)e-------------------------------12---------|B-------12-13-----12---12-13-15--------15--|G-12-14------------------------------------|D------------------------------------------|A------------------------------------------|E------------------------------------------|cont.e----12-13-15-----13---13-15-17-19-----17--|B-15---------------------------------------|G------------------------------------------|D------------------------------------------|A------------------------------------------|E------------------------------------------|cont.e-19--20---20-20---19-15-------------------|B--------------------------15---------15---|G-------------------------------------17b19| etc.D------------------------------------------|A------------------------------------------|E------------------------------------------|

0 reply
lefthandman9876 235 Dec 19, 2012 04:16 AM

Richard lloyd plays the solo not tom.

0 reply
bennyshambles78 4,121 Dec 20, 2012 03:15 PM

Cool, good to know; Richard Lloyd is a great guitar player.

guest
You may want to rate the tab now too:
select rating
Wanna post a correction for this tab? Suggest correction