Oops, an error
Loading. Please wait.

The Fire bass

400 views 1 this week
no commentswrite comment
1 2 3 4 5
3 more votes to show rating
add to favorites
×
Save as Personal and add changes to this tab that will be seen only by you. Learn more ›
×
You can save this tab as Personal to edit and correct it or add notes. All changes will be seen only by you. Learn more »
launch autoscroll
font size
0
reset
guitar tuner
edit
Autoscroll
slow
fast
+/-
esc
set tempo
stop
Author
The Fire
Television
Bass Tab
Bassist: Fred Smith

116BPM, 4/4

Intro

|----------|---------|----------|---------|
|----------|---------|----------|---------|
|-3--------|---------|----------|---------|
|----------|---------|-5--------|---------|

|----------|---------|----------|---------|
|----------|---------|----------|---------|
|-2--------|---------|-5--------|---------|
|----------|---------|----------|---------|

|------------|------------|------------|------------|
|-2----------|---4-5------|-2----------|---4-5------|
|------------|--------25--|------------|--------25--|
|---00-0-----|------------|---00-0-----|------------|

Verse

|------------|------------|-2----------|---4-5------|
|-2----------|---4-5------|------------|--------52--|
|------------|--------25--|---00-0-----|------------|
|---00-0-----|------------|------------|------------|

|----4-4-----|---9-8--5---|------------|------------|
|---4--------|------------|-5----------|---4-5------|
|-2----------|------------|------------|--------25--|
|------------|------------|---00-0-----|------------|

|------------|------------|-2-----------|--------------|
|-2----------|---4-5------|-----------5-|-2------------|
|------------|--------25--|---00-0------|--------------|
|---00-0-----|------------|-------------|---55---0-5-x-|

|----4-4-----|---9-8--5---|------------|-----------|
|---4--------|------------|-5----------|-----2--4--|
|-2----------|------------|------------|-----------|
|------------|------------|---00-0-----|-----------|

Chorus

|-----------|------------|-----------|-------------|
|-5---------|-5----------|-----------|---------5-x-|
|------5----|------5--7--|-8---------|-8----8------|
|-----------|------------|------8----|-------------|

|------------|--------------|------------|-------------|
|-7--------5h|=7----7--9-10-|-9----------|-9--7--5--4--|
|------7-----|--------------|------9---9-|-------------|
|------------|--------------|------------|-------------|

|------------|------------|-2----------|---4-5------|
|-5----------|---4-5------|------------|--------52--|
|------------|--------25--|---00-0-----|------------|
|---00-0-----|------------|------------|------------|

|----4-4---9-8-|---5-4------|
|---4----------|----------5-|
|-2------------|------------|
|--------------|------------|

Break

|----------|---------|----------|---------|
|----------|---------|----------|---------|
|-3--------|---------|----------|---------|
|----------|---------|-5--------|---------|

|----------|---------|----------|-----------|
|----------|---------|----------|-----------|
|-2--------|---------|-5--------|-------2/--|
|----------|---------|----------|-----------|

|------------|------------|-2----------|---4-5------|
|------------|---4-5------|------------|--------52--|
|-7----------|--------25--|---00-0-----|------------|
|---00-0-----|------------|------------|------------|

|----4-4---9-8-|---5-4------|------------|------------|
|---4----------|----------4-|-5----------|---4-5------|
|-2------------|------------|------------|--------25--|
|--------------|------------|---00-0-----|------------|

Verse

|------------|------------|-2----------|---4-5------|
|-2----------|---4-5------|------------|--------52--|
|------------|--------25--|---00-0-----|------------|
|---00-0-----|------------|------------|------------|

|----4-4---9-8-|---5-4------|------------|------------|
|---4----------|----------4-|-5----------|---4-5------|
|-2------------|------------|------------|--------25--|
|--------------|------------|---00-0-----|------------|

|------------|------------|-2-----------|---------------|
|-2----------|---4-5------|-----------5-|-2-------------|
|------------|--------25--|---00-0------|---------------|
|---00-0-----|------------|-------------|---5-5---0-5-x-|

|----4-4---9-8-|---5-4------|------------|------------|
|---4----------|----------4-|-5----------|------------|
|-2------------|------------|------------|------------|
|--------------|------------|---00-0-----|----0-0--2--|

Chorus

|-----------|------------|-----------|-------------|
|-----------|-5----------|-----------|---------5-x-|
|------5----|------5--7--|-8---------|-8----8------|
|-3---------|------------|------8----|-------------|

|-----------|--------------|-----------|-----------|
|-7---------|-7----7--9-10-|-9---------|-5---------|
|------7----|--------------|------9----|------5----|
|-----------|--------------|-----------|-----------|

|------------|-----------|-------------|-----------|
|-5---x5--4--|-3---------|-3----3--5-x-|-7---------|
|------------|------3----|-------------|------7----|
|------------|-----------|-------------|-----------|

|--------------|------------|-------------|
|-7---x7--9-10-|-9----------|-9--7--5---4-|
|--------------|------9---9-|-------------|
|--------------|------------|-------------|

|------------|------------|-2----------|---4-5------|
|-5----------|---4-5------|------------|--------52--|
|------------|--------25--|---00-0-----|------------|
|---00-0-----|------------|------------|------------|

|----4-4---9-8-|---5-4------|
|---4----------|----------5-|
|-2------------|------------|
|--------------|------------|

Break

|----------|---------|----------|---------|
|----------|---------|----------|---------|
|-3--------|---------|----------|---------|
|----------|---------|-5--------|---------|

|----------|---------|----------|-----------|
|----------|---------|----------|-----------|
|-2--------|---------|-5--------|-------2/--|
|----------|---------|----------|-----------|

Solo

|------------|------------|-2----------|---4-5------|
|------------|---4-5------|------------|--------52--|
|-7----------|--------25--|---00-0-----|------------|
|---00-0-----|------------|------------|------------|

|----4-4---9-8-|---5-4------|------------|------------|
|---4----------|----------4-|-5----------|---4-5------|
|-2------------|------------|------------|--------25--|
|--------------|------------|---00-0-----|------------|

|------------|------------|-2----------|---4-5------|
|-2----------|---4-5------|------------|--------52--|
|------------|--------25--|---00-0-----|------------|
|---00-0-----|------------|------------|------------|

|----4-4---9-8-|---5-4------|------------|--------24--|
|---4----------|----------4-|-5----------|--45--5-----|
|-2------------|------------|------------|------------|
|--------------|------------|---00-0-----|------------|

|------------|------------|-2-----------|--------------|
|-2----------|---4-5------|-----------5-|-2------------|
|------------|--------25--|---00-0------|--------------|
|---00-0-----|------------|-------------|---5----0-5-x-|

|----4-4---9-8-|---5-4------|------------|-----------|
|---4----------|----------4-|-5----------|--45-------|
|-2------------|------------|------------|-------25--|
|--------------|------------|---00-0-----|-----------|

|------------|------------|-2----------|---4-5------|
|-2----------|---4-5------|------------|--------52--|
|------------|--------25--|---00-0-----|------------|
|---00-0-----|------------|------------|------------|

|----4-4---9-8-|---5-4------|------------|----------|
|---4----------|----------4-|-5----------|----------|
|-2------------|------------|------------|-------2--|
|--------------|------------|---00-0-----|----------|

|------------|------------|-2----------|----------|
|-2----------|---4-5------|------------|------52--|
|------------|--------25--|---00-0-----|----------|
|---00-0-----|------------|------------|----------|

|----4-4---9-8-|---5-4------|------------|------------|
|---4----------|----------4-|-5----------|---4-5------|
|-2------------|------------|------------|--------25--|
|--------------|------------|---00-0-----|------------|

|------------|------------|-2----------|---4-5------|
|-2----------|---4-5------|------------|--------52--|
|------------|--------25--|---00-0-----|------------|
|---00-0-----|------------|------------|------------|

|----4-4---9-8-|---5-4-------|
|---4----------|--------7-5--|
|-2------------|-------------|
|--------------|-------------|

Chorus/Ending

|-----------|------------|-----------|-------10---------|
|-5---------|-5----------|-----------|----10-----10-5h6-|
|------5----|-----x5--7--|-8---------|-8----------------|
|-----------|------------|------8----|------------------|

|-----------|--------------|------------|-------------|
|-7---------|-7----7--9-10-|-9----------|-9--7--5--4--|
|------7----|--------------|------9---9-|-------------|
|-----------|--------------|------------|-------------|

|------------|------------|-2-----------|--------------|
|-5----------|---4-5------|-----------5-|-2------------|
|------------|--------25--|---00-0------|--------------|
|---00-0-----|------------|-------------|---55---0-5-x-|

|----4-4---9-8-|---5-4-----|----------|----------|
|---4----------|-----------|----------|----------|
|-2------------|-----------|-3--------|----------|
|--------------|-----------|----------|-5--------|

|----------|---------|
|----------|---------|
|----------|---------|
|-0--------|---------|

            
            
Suggest correction
Creating personal tab
Creating personal tab
You can edit any tab online and save it as your Personal.

You can edit, replace or remove any tab part or add personal notes – all changes will be seen only by you.

Personal tabs can be accessed anytime from any device, even offline.
Learn more »
Give kudos to tab author, rate the tab!
1 2 3 4 5
comments
print report bad tab
guest
You may want to rate the tab now too:
select rating
Wanna post a correction for this tab? Suggest correction