Oops, an error
Loading. Please wait.

Superestrars Tab

13 views 1 this week
no commentswrite comment
1 2 3 4 5
3 more votes to show rating
add to favorites
×
Save as Personal and add changes to this tab that will be seen only by you. Learn more ›
×
You can save this tab as Personal to edit and correct it or add notes. All changes will be seen only by you. Learn more »
save as personal
new!
launch autoscroll
font size
0
reset
how to read this tab
guitar tuner
Autoscroll
slow
fast
+/-
esc
set tempo
stop
''''''''''''''AKI TA ESTA ROLA CORREJIDA ORDENADA Y COMPLETA''''''''''''''''
PA TODA LA GENTE
ESTA ROLA ES POWER AKI LES VA

INTRO

e*----------------------------------------------------------
B*----------------------------------------------------------
G*----------------------------------------------------------      X2
D*---------------7-7-7-6-6-6-----------------7-7-7-6-6-6----
A*--7-7-7-5-5-5--------------5-5-7-7-7-5-5-5-------------5-5
E*----------------------------------------------------------

VERSO

e*-------------------------------------
B*-------------------------------------
G*-------------------------------------            X2
D*-------------------------------------
A*--7-5-7-5-7----7-5-7-5-7----7-5-7----
E*-------------------------------------

REPETIR EL INTRO UNA VEZ Y LUEGO EL VERSO X2

CORO

e*--------------------------------------------------------------------
B*--------------------------------------------------------------------
G*--------------------------------------------------------------------            X2
D*--------------7-7-7-6-6-6----------------------7-7-7-6-6-6----------
A*--7-7-7-5-5-5--------------7-7-5-5-7-7-7-5-5-5-------------7-7-5-5--
E*--------------------------------------------------------------------

SOLO

e*--------------------------------------------------------------------
B*--------------------------------------------------------------------
G*-------------12-----------------------------------------------------
D*--9-------------------13b--13---------------------------------------
A*---------------------------------12---------------------------------
E*--------------------------------------------------------------------

REPETIR EL VERSO X2
LUEGO
REPETIR EL CORO X2 PERO CON PALM MUTE
LUEGO
REPETIR EL CORO X4
PUENTE

e*-------------------------------------------------------------------------------------
B*-------------------------------------------------------------------------------------
G*-------------------------------------------------------------------------------------
D*------------------------------5-5----------------5-5-7-7-7-9-9-9---------------------
A*--7-7-7-5-5-5-7-7-7-5-5-5-7-7-------7-7-7-5-5-5-------------------7-5-7-5-7------7-7-
E*-----------------------------------------------------------------------------0-0-----

REPETIR EL CORO X4

ESO ES TODO PEOPLE ESPERO Q LES GUSTE ESTA ROLA QUE ESTA BIEN XVERE
DESDE PERU SALUDOS PARA LA GENTE DE TELEVISION KAMIKZE DE EDUARDO ALIAS CHAKL O DINO 
Y MUERTE PARA EL BASTARDO DEL AVARO JAJAJAJJAJA OK
Suggest correction
Give kudos to tab author, rate the tab!
1 2 3 4 5
comments
print report bad tab
guest
Wanna post a correction for this tab? Suggest correction