Oops, an error
Loading. Please wait.

A Family Affair Bass Tab

16 views 1 this week
no commentswrite comment
1 2 3 4 5
3 more votes to show rating
add to favorites
launch autoscroll
font size
0
reset
guitar tuner
Autoscroll
slow
fast
+/-
esc
set tempo
stop
Help us to improve Ultimate-Guitar.com Take our survey!
×
Author
Difficulty
novice
[Verse 1] 

G|--------------|-------------|-------------|-------------|
D|--------------|-------------|-------------|-------------|
A|--1-1-1-1-1-1-|-0-0-0-0-0-0-|-------------|-------------|
E|--------------|-------------|-3-3-3-3-3-3-|-3-3-3-3-3-2-|


G|-------------|-------------|-------------|-------------|
D|-------------|-------------|-------------|-------------|
A|-----------0-|-1-1-1-1-0---|-------------|-----------0-|
E|-1-1-1-1-3---|-----------2-|-1-1-1-1-1-1-|-1-1-1-1-3---|


G|-------------|-------------|-------------|-------------|
D|-------------|-------------|-------------|-------------|
A|-1-1-1-1-1-1-|-0-0-0-0-0-0-|-------------|-------------|
E|-------------|-------------|-3-3-3-3-3-3-|-3-3-3-3-3-2-|


G|-------------|-------------|-------------|-------------|
D|-------------|-------------|-------------|-------------|
A|-----------0-|-1-1-1-1-0---|-------------|-------------|
E|-1-1-1-1-3---|-----------2-|-1-1-1-1-1-1-|-1-1-1-1-1-1-|


[Chorus]

G|-------------|---------------|-------------|-------------|
D|-------------|---------------|-------------|-------------|
A|-3-3-3-3-3-3-|-3-3-3-3/5-5-5-|-3-3-3-3-3-3-|-3-3-3-3-3-3-|
E|-------------|---------------|-------------|-------------|


G|-------------|------------------|-------------|-----------|
D|-------------|------------------|-------------|-----------|
A|-3-3-3-5-5-5-|-6-6-6-6/10-10-10-|-8-8-8-8-8-8-|-8-8-8-8\--|
E|-------------|------------------|-------------|-----------|


[Verse 2]
 
G|--------------|-------------|-------------|-------------|
D|--------------|-------------|-------------|-------------|
A|--1-1-1-1-1-1-|-0-0-0-0-0-0-|-------------|-------------|
E|--------------|-------------|-3-3-3-3-3-3-|-3-3-3-3-3-2-|


G|-------------|-------------|-------------|-------------|
D|-------------|-------------|-------------|-------------|
A|-----------0-|-1-1-1-1-0---|-------------|-----------0-|
E|-1-1-1-1-3---|-----------2-|-1-1-1-1-1-1-|-1-1-1-1-3---|


G|-------------|-------------|-------------|-------------|
D|-------------|-------------|-------------|-------------|
A|-1-1-1-1-1-1-|-0-0-0-0-0-0-|-------------|-------------|
E|-------------|-------------|-3-3-3-3-3-3-|-3-3-3-3-3-2-|


G|-------------|-------------|-------------|-------------|
D|-------------|-------------|-------------|-------------|
A|-----------0-|-1-1-1-1-0---|-------------|-------------|
E|-1-1-1-1-3---|-----------2-|-1-1-1-1-1-1-|-1-1-1-1-1-1-|


[Chorus]

G|-------------|---------------|-------------|-------------|
D|-------------|---------------|-------------|-------------|
A|-3-3-3-3-3-3-|-3-3-3-3/5-5-5-|-3-3-3-3-3-3-|-3-3-3-3-3-3-|
E|-------------|---------------|-------------|-------------|


G|-------------|------------------|-------------|-------------|
D|-------------|------------------|-------------|-------------|
A|-3-3-3-5-5-5-|-6-6-6-6/10-10-10-|-8-8-8-8-8-8-|-8-8-8-8-8-8-|
E|-------------|------------------|-------------|-------------|


[Bridge]

G|-------------|-------------|---------------|-------------| (x3)
D|-------------|-------------|---------------|-------------|
A|-6-8-8-8-8-8-|-8-8-8-8-6-6-|-6/8-8-8-8-8-8-|-8-8-8-8-8-8-|
E|-------------|-------------|---------------|-------------|


G|-------------|---------------|
D|-------------|---------------|
A|-8-8-8-8-8-8-|-8\------------|
E|-------------|---------------| * 8\ : maintain fingerpicking


[Outro]

G|-------------|-------------|-------------|-------------|
D|-------------|-------------|-------------|-------------|
A|-1-1-1-1-1-1-|-0-0-0-0-0-0-|-------------|-------------|
E|-------------|-------------|-3-3-3-3-3-3-|-3-3-3-3-3-2-|

  (repeat until the end)
G|-------------|-------------|
D|-------------|-------------|
A|-----------0-|-1-1-1-1-0---|
E|-1-1-1-1-3---|-----------2-|



******************************

| / : slide up
| \ : slide down

******************************

in regular sequence!
Suggest correction
Give kudos to tab author, rate the tab!
1 2 3 4 5
comments
print report bad tab
guest
You may want to rate the tab now too:
select rating
Wanna post a correction for this tab? Suggest correction