Oops, an error
Loading. Please wait.

I Know Where Syd Barrett Lives Chords

3,149 views 6 this week
no commentswrite comment
1 2 3 4 5
1 last vote to show rating
add to favorites
launch autoscroll
font size
0
reset
transpose
0
reset
simplify chords
display chords
guitar tuner
Autoscroll
slow
fast
+/-
esc
set tempo
stop
Help us to improve Ultimate-Guitar.com Take our survey!
×
Chords:

D
e|------------------2----------------------|
B|----------3-----------3--------3---------|
G|------2------2------------2--------------|
D|--0--------------------------------------|
A|-----------------------------------------|
E|-----------------------------------------|

E7/D
e|---------------------0-----------------------|
B|------------3------------3---------3---------|
G|-------1--------1-------------1--------------|
D|---0-----------------------------------------|
A|---------------------------------------------|
E|---------------------------------------------|

G/D
e|------------------0---------------------|
B|---------3------------3--------3--------|
G|-----0-------0-------------0------------|
D|--0-------------------------------------|
A|----------------------------------------|
E|----------------------------------------|

G
e|------------------3---------------------|
B|---------0------------0--------0--------|
G|-----0-------0-------------0------------|
D|----------------------------------------|
A|----------------------------------------|
E|--3-------------------------------------|

A
e|------------------0---------------------|
B|---------2------------2--------2--------|
G|-----2-------2-------------2------------|
D|----------------------------------------|
A|--0-------------------------------------|
E|----------------------------------------|

Em7
e|------------------0---------------------|
B|---------3------------3--------3--------|
G|-----0-------0-------------0------------|
D|--2-------------------------------------|
A|----------------------------------------|
E|----------------------------------------|


[Verse]

D  D

D                 D
There's a little man
E7/D         E7/D
In a little house
G/D                G/D
With a little pet dog
D                     D
And a little pet mouse

D                D
I know where he lives
E7/D          E7/D
And I'll visit him
G/D             G/D
We have Sunday tea
D             D
Sausages and beans


[Chorus]

G                      A
I know where he lives....

ahhhhhhhhhhh

'Cause I know where Syd Barrett lives


[Verse]

D               D
He was very famous
E7/D         E7/D
Once upon a time
G/D           G/D
And no-one knows
D                D
Even if he's alive

D                   D
But I know where he lives
E7/D         E7/D
And I'll visit him
G/D         G/D
In a little hut
D         D
In Cambridge


[Chorus]

G                      A
I know where he lives....
Ab/A
ahhhhhhhhhhh
                          D             
 'Cause I know where Syd Barrett lives


[Bridge]

Em7 D 

Em7                                                     D
And the trees and the flowers are so pretty arent they?


[Verse]

D
He was very famous
Em7/D
Once upon a time
G/D
And no-one cares
D
Even if he's alive(we do!)

D
But I know where he lives
Em7/D
And I'll visit him
G/D
In a little hut
D
By the edge of the wood.


ohhh shut up!
Suggest correction
Give kudos to tab author, rate the tab!
1 2 3 4 5
comments
print report bad tab
guest
You may want to rate the tab now too:
select rating
Wanna post a correction for this tab? Suggest correction