Oops, an error
Loading. Please wait.

I Know Where Syd Barrett Lives Chords

3,074 views 3 this week
no commentswrite comment
1 2 3 4 5
please rate
add to favorites
launch autoscroll
font size
0
reset
transpose
0
reset
display chords
guitar tuner
Autoscroll
slow
fast
+/-
esc
set tempo
stop
Help us to improve Ultimate-Guitar.com Take our survey!
×
Author
happy_jo-jo 1,405
Chords:

D
e------------------2----------------------|
b----------3-----------3--------3---------|
g------2------2------------2--------------|
d--0--------------------------------------|
a-----------------------------------------|
e-----------------------------------------|

D*
e---------------------0-----------------------|
b------------3------------3---------3---------|
g-------1--------1-------------1--------------|
d---0-----------------------------------------|
a---------------------------------------------|
e---------------------------------------------|

D**
e------------------0---------------------|
b---------3------------3--------3--------|
g-----0-------0-------------0------------|
d--0-------------------------------------|
a----------------------------------------|
e----------------------------------------|

(verse):

D  D

D                          D
There's a little man

D*                         D*
In a little house

D**                        D**
With a little pet dog

D                           D
And a little pet mouse

D                            D
I know where he lives

D*                            D*
And I'll visit him

D**                           D**
We have Sunday tea

D                              D
Sausages and beans

G                      A
I know where he lives....

ahhhhhhhhhhh

(chorus):

'Cause I know where Syd Barrett lives

He was very famous

Once upon a time

And no-one knows

Even if he's alive

But I know where he lives

And I'll visit him

In a little hut

In Cambridge

Chorus

And the trees and the flowers are so pretty arent they?

He was very famous

Once upon a time

And no-one cares

Even if he's alive(we do!)

But I know where he lives

And I'll visit him

In a little hut

By the edge of the wood.
Suggest correction
What's this?
You can suggest a correction to this tab. Community and Mods will review your correction and vote to approve or reject it.
comments
We did not receive enough feedback on this tab! Please rate:
print report bad tab
1 2 3 4 5
guest
You may want to rate the tab now too:
select rating
Please do not post tabs as comments. Select "correction" instead!