Oops, an error
Loading. Please wait.

The Need Tab

by Templar
39 views 1 this week
no commentswrite comment
1 2 3 4 5
3 more votes to show rating
add to favorites
launch autoscroll
font size
0
reset
how to read this tab
guitar tuner
×
Best way to learn
"The Need"
Autoscroll
slow
fast
+/-
esc
set tempo
stop
The Need- Templar
CD: Under The Sun
Tabber: Mitchell (Mitchell_J@hotmail.com)
Tuning: Standard
h= hammer on   p= pull off   ~= hold note   /= slide

This is my second Templar tab of... hopefully some more since I burned their CD.
By the way, this song ROOLS!!! And the CD is quite awesome as well. Enjoy the tab!

Halfway through first verse (and 3rd verse):
e ------------------------------------------------
B ------------------------------------------------
G ------------------------------------------------
D ------------------------------------------------
A ------------------------------------------------
E -0--0-0--3h5-5p3-3-3-3---0--0-0--3h5-5p3-3-3-3--

This riff kicks ass:
e -------------------
B -------------------
G -----9-9-9---------
D -2~--9-9-9--8-8-8--
A -2~--7-7-7--8-8-8--
E -0~---------6-6-6--

Second verse only:
e -----------------------|---------------
B --PM---(play 3 times)--|---------------
G -----------------------|---------------
D -2-2-2-2-2--8-8-8-8-8--|--5-5-5/7-7-7--
A -2-2-2-2-2--8-8-8-8-8--|--5-5-5/7-7-7--
E -0-0-0-0-0--6-6-6-6-6--|--3-3-3/5-5-5--

Chorus:
e -----------------------------------------------
B -----------------------------------------------
G -9-9-9-9-9--5-5-5-5-5--7-7-7-7-7---------------
D -9-9-9-9-9--5-5-5-5-5--7-7-7-7-7--7-7-7-7/8-8--
A -7-7-7-7-7--3-3-3-3-3--5-5-5-5-5--7-7-7-7/8-8--
E ----------------------------------5-5-5-5/6-6--

Bridge:
e --------------------------------------------------------------------------------
B --------------------------------------------------------------------------------
G --------------------------------------------------------------------------------
D -2-2-----2-2-----2-2-----2-2----------------------------------------------------
A -2-2-----2-2-----2-2-----2-2----------------------------------------------------
E -0-0-----0-0-----0-0-----0-0-----0--0-0--3h5-5p3-3-3-3---0--0----3h5-5p3-3-3-3--

SONG ENDS ON AN F5 CHORD!!!

Chords: E5  F5  G5  A5  A#5  C5  D5  E5(2)
e       x   x   x   x    x   x   x     x
B       x   x   x   x    x   x   x     x
G       x   x   x   x    x   5   7     9
D       2   3   5   7    8   5   7     9
A       2   3   5   7    8   3   5     7
E       0   1   3   5    6   x   x     x

Tab originally from: http://diehardtabs.tripod.com
Suggest correction
Give kudos to tab author, rate the tab!
1 2 3 4 5
comments
print report bad tab
guest
You may want to rate the tab now too:
select rating
Wanna post a correction for this tab? Suggest correction