Oops, an error
Loading. Please wait.

Hunger Strike Tab

version 1
version 1

Whole song

47,978 views 36 this week
2 commentsread comments
1 2 3 4 5
x 7
add to favorites
launch autoscroll
font size
0
reset
how to read this tab
guitar tuner
Autoscroll
slow
fast
+/-
esc
set tempo
stop
Help us to improve Ultimate-Guitar.com Take our survey!
×
this is pretty much the whole song.
This is my first song,so don\'t go hard on me.                       


------------------------------------------
-----0---3-----3--------0---3-----3-------
---0---0---0----------0---0---0-----------
-0-----------0------2-----------2---------
------------------------------------------
------------------------------------------         

play 4x       
------------------
------------------
------------------
------------4b----
0-2--0-2----------
0-2--0-2----------

Have fun with it!
Suggest correction
comments
print report bad tab
2 comments total.
-1 reply
warrior091 10 Jun 26, 2003 12:00 AM

E ---------------------------------------
B ----0---3-3---0--3-3-----0---3-3---3-3-
G --0---0-----0---0------0---0-----0-----
D 0-------------------2------------------
A ---------------------------------------
D ---------------------------------------

+1 reply
MASTER JiMMY 570 Mar 27, 2007 01:25 AM

thats wrong aswell

guest
You may want to rate the tab now too:
select rating
Wanna post a correction for this tab? Suggest correction