Oops, an error
Loading. Please wait.

Hunger Strike Tab

version 3
version 3

Whole song

50,547 views 1,167 this week
3 commentsread comments
1 2 3 4 5
x 12
add to favorites
launch autoscroll
font size
0
reset
how to read this tab
guitar tuner
×
Best way to learn
"Hunger Strike"
Autoscroll
slow
fast
+/-
esc
set tempo
stop
Author
Tuning
D A D G B E
HUNGER STRIKE
                        As recorded by Temple Of The Dog
                     (From the 1999 Album TEMPLE OF THE DOG)

Words and Music by Christopher Cornell
Transcribed by www.mikesguitarsite.co.uk

Gtr I (D A D G B E) - 'Stone Gossard - Rhythm Clean Electric'
Gtr II (D A D G B E) - 'Mike Mcready - Rhythm Clean Electric'
Gtr III (E A D G B E) - 'Mike Mcready - Rhythm w/dist'
Gtr IV (E A D G B E) - 'Stone Gossard - Rhythm Clean 12 String Electric'
Gtr V (D A D G B E) - 'Stone Gossard - Rhythm w/dist'
Gtr VI (D A D G B D) - 'Mike McReady - Rhythm w/dist'

[Intro]
Q=69
4/4
Gtr I
E||------------------------------------|----------------------------------||
B||o-----0h(1)-3-----3-----0h1-3-----3-|-----0h1-3-----3-----0h1-3-----3-o||
G||----0----0----0-------0---0---0-----|---0---0---0-----0-----0---0------||
D||--0-------------0---2-----------2---|-0-----------0-----0---------0----||
A||o-----------------------------------|---------------------------------o||
D||------------------------------------|----------------------------------||
 |
 |   Gtr II
 |   <                                   <               <
E||------------------------------------|----------------------------------||
B||o-----------------------------------|-0---------------1---------------o||
G||------------------------------------|----------------------------------||
D||--0---------------------------------|----------------------------------||
A||o-----------------------------------|---------------------------------o||
D||------------------------------------|----------------------------------||

[Verse 1]
     Gtr III
E||------------------------------------|----------------------------------|
B||o-----0-----3-----3-----0---3-----3-|-----0---3-----3---------------3--|
G||--2p0-0-------0h2-0-2p0---0---0-----|-2p0---0---0h2-0-0-0-0---2p0-2-2--|
D||--0------0----0-----0-----------0---|-0---------0-----------0----------|
A||o-----------------------------------|----------------------------------|
D||------------------------------------|----------------------------------|
|
 |   Gtr I
E||------------------------------------|----------------------------------|
B||o-----0h(1)-3-----3-----0h1-3-----3-|-----0h1-3-----3-----0h1-3-----3--|
G||----0----0----0-------0---0---0-----|---0---0---0-----0-----0---0------|
D||--0-------------0---2-----------2---|-0-----------0-----0---------0----|
A||o-----------------------------------|----------------------------------|
D||------------------------------------|----------------------------------|
|
 |   Gtr II
 |   <                                   <               <
E||------------------------------------|----------------------------------|
B||o-----------------------------------|-0---------------1----------------|
G||------------------------------------|----------------------------------|
D||--0---------------------------------|----------------------------------|
A||o-----------------------------------|----------------------------------|
D||------------------------------------|----------------------------------|

E|-----------------------------------|----------------------------------||
B|---------------------------3-----3-|-0-------------3-----0-1-3-------o||
G|-0---0--0--0-0---0-0-0-4p0-0-0-0---|---0-0-0-0-0-0-0-0-0-------0-0-0--||
D|-0-0-----------0-------------------|-----------------------------0----||
A|-----------------------------------|---------------------------------o||
D|-----------------------------------|----------------------------------||
|
E|-----------------------------------|----------------------------------||
B|-----0h(1)-3-----3-----0h1-3-----3-|-----0h1-3-----3-----0h1-3-----3-o||
G|---0----0----0-------0---0---0-----|---0---0---0-----0-----0---0------||
D|-0-------------0---2-----------2---|-0-----------0-----0---------0----||
A|-----------------------------------|---------------------------------o||
D|-----------------------------------|----------------------------------||
 |
 | <                                   <               <
E|-----------------------------------|----------------------------------||
B|-----------------------------------|-0---------------1---------------o||
G|-----------------------------------|----------------------------------||
D|-0---------------------------------|----------------------------------||
A|-----------------------------------|---------------------------------o||
D|-----------------------------------|----------------------------------||

E|-----------------------------------|---------------------------------|
B|-----3-----3-----------0-------0---|-----0---3-----3---------------3-|
G|-2---2--2--2-0-------0-0-0-2-----0-|-2p0---0---0h2-0-0-0-0---2p0-2-2-|
D|-0-0----0--0---0-0-2-------0-0---0-|-0---------0-----------0---------|
A|-----------------------------------|---------------------------------|
D|-----------------------------------|---------------------------------|
 |
E|-----------------------------------|---------------------------------|
B|-----0h(1)-3-----3-----0h1-3-----3-|-----0h1-3-----3-----0h1-3-----3-|
G|---0----0----0-------0---0---0-----|---0---0---0-----0-----0---0-----|
D|-0-------------0---2-----------2---|-0-----------0-----0---------0---|
A|-----------------------------------|---------------------------------|
D|-----------------------------------|---------------------------------|
 |
 | <                                   <               <
E|-----------------------------------|---------------------------------|
B|-----------------------------------|-0---------------1---------------|
G|-----------------------------------|---------------------------------|
D|-0---------------------------------|---------------------------------|
A|-----------------------------------|---------------------------------|
D|-----------------------------------|---------------------------------|

E|-----------------------------------|---------------------------------|
B|---------------------------3-----3-|-0-------------3-----0-1-3-------|
G|-0---0--0--0-0---0-0-0-4p0-0-0-0---|---0-0-0-0-0-0-0-0-0-------0-0-0-|
D|-0-0-----------0-------------------|-----------------------------0---|
A|-----------------------------------|---------------------------------|
D|-----------------------------------|---------------------------------|
|
E|-----------------------------------|---------------------------------|
B|-----0h(1)-3-----3-----0h1-3-----3-|-----0h1-3-----3-----0h1-3-----3-|
G|---0----0----0-------0---0---0-----|---0---0---0-----0-----0---0-----|
D|-0-------------0---2-----------2---|-0-----------0-----0---------0---|
A|-----------------------------------|---------------------------------|
D|-----------------------------------|---------------------------------|
 |
 | <                                   <               <
E|-----------------------------------|---------------------------------|
B|-----------------------------------|-0---------------1---------------|
G|-----------------------------------|---------------------------------|
D|-0---------------------------------|---------------------------------|
A|-----------------------------------|---------------------------------|
D|-----------------------------------|---------------------------------|

E|-----------------------------------|---------------------------------|
B|-----0-----3-----3-----0---3-----3-|-----0---3-----3---------------3-|
G|-2p0-0-------0h2-0-2p0---0---0-----|-2p0---0---0h2-0-0-0-0---2p0-2-2-|
D|-0------0----0-----0-----------0---|-0---------0-----------0---------|
A|-----------------------------------|---------------------------------|
D|-----------------------------------|---------------------------------|
|
E|-----------------------------------|---------------------------------|
B|-----0h(1)-3-----3-----0h1-3-----3-|-----0h1-3-----3-----0h1-3-----3-|
G|---0----0----0-------0---0---0-----|---0---0---0-----0-----0---0-----|
D|-0-------------0---2-----------2---|-0-----------0-----0---------0---|
A|-----------------------------------|---------------------------------|
D|-----------------------------------|---------------------------------|
 |
 | <                                   <               <
E|-----------------------------------|---------------------------------|
B|-----------------------------------|-0---------------1---------------|
G|-----------------------------------|---------------------------------|
D|-0---------------------------------|---------------------------------|
A|-----------------------------------|---------------------------------|
D|-----------------------------------|---------------------------------|

E|-----------------------------------|---------------------------------||
B|---------------------------3-----3-|-0-------------3-----0-1-3-------||
G|-0---0--0--0-0---0-0-0-4p0-0-0-0---|---0-0-0-0-0-0-0-0-0-------0-0-0-||
D|-0-0-----------0-------------------|-----------------------------0---||
A|-----------------------------------|---------------------------------||
D|-----------------------------------|---------------------------------||
|
E|-----------------------------------|---------------------------------||
B|-----0h(1)-3-----3-----0h1-3-----3-|-----0h1-3-----3-----0h1-3-----3-||
G|---0----0----0-------0---0---0-----|---0---0---0-----0-----0---0-----||
D|-0-------------0---2-----------2---|-0-----------0-----0---------0---||
A|-----------------------------------|---------------------------------||
D|-----------------------------------|---------------------------------||
 |
 | <                                   <               <
E|-----------------------------------|---------------------------------||
B|-----------------------------------|-0---------------1---------------||
G|-----------------------------------|---------------------------------||
D|-0---------------------------------|---------------------------------||
A|-----------------------------------|---------------------------------||
D|-----------------------------------|---------------------------------||

[Verse 2]
     Gtr IV
E||----------------------------------------|---------------------------------|
B||o-----0-----3-----3-----0---3---------3-|-----0---3-----3s5---3-----3---0-|
G||----0----0----0-------0---0---0---------|---0---0---0-------------4-------|
D||--0-------------0---2---------------0---|-0-----------0-----0---------0---|
A||o---------------------------------------|---------------------------------|
D||----------------------------------------|---------------------------------|
|
 |   Gtr III
E||----------------------------------------|---------------------------------|
B||o-----0-----3-0---3-----0---3p0---------|-----0---3-----------0-----3---3-|
G||----0----0----0-------0---0-----(0)---0-|---0---0---0-0---0-0---0-2---0---|
D||--0-------------0---2---------------2---|-0-----------0-0-----------------|
A||o---------------------------------------|---------------------------------|
D||----------------------------------------|---------------------------------|
|
 |   Gtr I
E||----------------------------------------|---------------------------------|
B||o-----0h(1)-3-----3-----0h1-3---------3-|-----0h1-3-----3-----0h1-3-----3-|
G||----0----0----0-------0---0---0---------|---0---0---0-----0-----0---0-----|
D||--0-------------0---2---------------2---|-0-----------0-----0---------0---|
A||o---------------------------------------|---------------------------------|
D||----------------------------------------|---------------------------------|

                                                                        3x
E|-----------------------------------|----------------------------------||
B|-----0-----3-----3-----0---3-----3-|-----0---3-----3s5---3-----3---0-o||
G|---0----0----0-------0---0---0-----|---0---0---0-------------4--------||
D|-0-------------0---2-----------0---|-0-----------0-----0---------0----||
A|-----------------------------------|---------------------------------o||
D|-----------------------------------|----------------------------------||
 |
 |                                                                      3x
E|-----------------------------------|----------------------------------||
B|-----------------------------------|---------------------------0---3-o||
G|--------0----0---0-------0---0---0-|---0---0---0---0---0---0---0------||
D|-4s5-5-----5---5---4s5-5---5---5---|-5---5---5---5---5---5---5---5----||
A|-----------------------------------|---------------------5-------5---o||
D|-----------------------------------|----------------------------------||
 |
 |                                                                      3x
E|-----------------------------------|----------------------------------||
B|-----0h(1)-3-----3-----0h1-3-----3-|-----0h1-3-----3-----0h1-3-----3-o||
G|---0----0----0-------0---0---0-----|---0---0---0-----0-----0---0------||
D|-0-------------0---2-----------2---|-0-----------0-----0---------0----||
A|-----------------------------------|---------------------------------o||
D|-----------------------------------|----------------------------------||

E|---------------------------------------|----------------------------------||
B|-----0-----3-----3-----0---3---------3-|-----0---3-----3s5---3-----3---0--||
G|---0----0----0-------0---0---0---------|---0---0---0-------------4--------||
D|-0-------------0---2---------------0---|-0-----------0-----0---------0----||
A|---------------------------------------|----------------------------------||
D|---------------------------------------|----------------------------------||
|
E|---------------------------------------|----------------------------------||
B|-----0-----3-0---3-----0---3p0---------|-----0---3-----------0-----3---3--||
G|---0----0----0-------0---0-----(0)---0-|---0---0---0-0---0-0---0-2---0----||
D|-0-------------0---2---------------2---|-0-----------0-0------------------||
A|---------------------------------------|----------------------------------||
D|---------------------------------------|----------------------------------||
|
E|---------------------------------------|----------------------------------||
B|-----0h(1)-3-----3-----0h1-3---------3-|-----0h1-3-----3-----0h1-3-----3--||
G|---0----0----0-------0---0---0---------|---0---0---0-----0-----0---0------||
D|-0-------------0---2---------------2---|-0-----------0-----0---------0----||
A|---------------------------------------|----------------------------------||
D|---------------------------------------|----------------------------------||

[Chorus]
E|-------------------------------------|-----------------------0---0---0-----|
B|-----0-----3-----3-------0---3-----3-|-------0---3-----3s=5----5---5s4s3-3-|
G|---0----0----0---0---0h2---0---0-----|---0h2---0---0---0-(0)---------------|
D|-0-------------0---2-------2-----2---|-0-------------0---------------------|
A|-------------------------------------|-------------------------------------|
D|-------------------------------------|-------------------------------------|
|
E|-------------------------------------|-------------------------------------|
B|-------------------------------------|-------------------------------0---3-|
G|--------0----0---0---------0---0---0-|---0-----0---0---0-----0---0---0-----|
D|-4s5-5-----5---5---4s5---5---5---5---|-5-----5---5---5----5----5---5---5---|
A|-------------------------------------|-------------------------5-------5---|
D|-------------------------------------|-------------------------------------|
|
E|-------------------------------------|-------------------------------------|
B|-----0h(1)-3-----3-------0h1-3-----3-|-------0h1-3-----3-------0h1-3-----3-|
G|---0----0----0-------0-----0---0-----|---0-----0---0------0------0---0-----|
D|-0-------------0---2-------------2---|-0-------------0-------0---------0---|
A|-------------------------------------|-------------------------------------|
D|-------------------------------------|-------------------------------------|

E||--------------------------------------|
B||o-----0-----3-----3-------0---3-----3-|
G||----0----0----0---0---0h2---0---0-----|
D||--0-------------0---2-------2-----2---|
A||o-------------------------------------|
D||--------------------------------------|
|
E||--------------------------------------|
B||o-----0--3--3-----3-------0---3-------|
G||----0----0----2-------0-----0---0---0-|
D||--0-------------0---2-------------2---|
A||o-------------------------------------|
D||--------------------------------------|
|
E||--------------------------------------|
B||o-----0h(1)-3-----3-------0h1-3-----3-|
G||----0----0----0-------0-----0---0-----|
D||--0-------------0---2-------------2---|
A||o-------------------------------------|
D||--------------------------------------|

                                         3x
E|-----------------------0---0---0-------||
B|-------0---3-----3s=5----5---5s4s3-3--o||
G|---0h2---0---0---0-(0)-----------------||
D|-0-------------0-----------------------||
A|--------------------------------------o||
D|---------------------------------------||
|
 |                                       3x
E|---------------------------------------||
B|-------0---3-------------0---3-----3--o||
G|---0---0-0-0-0---0-----0---0---0---2---||
D|-5-----0-----0-5----5------------0-----||
A|--------------------------------------o||
D|---------------------------------------||
|
 |                                       3x
E|---------------------------------------||
B|-------0h1-3-----3-------0h1-3-----3--o||
G|---0-----0---0------0------0---0-------||
D|-0-------------0-------0---------0-----||
A|--------------------------------------o||
D|---------------------------------------||

   Gtr V
E|---------------------------------|-----------------------------------|
B|---------------------------------|-----------------------------------|
G|---------------------------------|-----------------------------------|
D|-0-2-0-2---2----(2)------------2-|-0-2-0-2---2----(2)----------------|
A|-0-2-0-2---2----(2)--------------|-0-2-0-2---2----(2)----------------|
D|-0-2-0-2-2-2----(2)----------2---|-0-2-0-2-2-2----(2)----------14\---|
 |
 | Gtr VI
 |                         ~~~                               ~~~
E|---------------------------------|-----------------------------------|
B|---------------------------------|-----------------------------------|
G|-----------------------------x-x-|------------------------------x--x-|
D|-0-2-0-2---4b5==(4)-(4)r(4)--x-x-|-0-2-0-2---4b5==(4)-(4)r(4)---x--x-|
A|-0-2-0-2---------------------x-x-|-0-2-0-2----------------------x--x-|
D|-0-2-0-2-2-------------------x-x-|-0-2-0-2-2--------------------x--x-|

E|----------------------------------|
B|----------------------------------|
G|----------------------------------|
D|-0-2-0-2---2----(2)----------2-2--|
A|-0-2-0-2---2----(2)----------2----|
D|-0-2-0-2-2-2----(2)----------2----|
 |
 |                         ~~~
E|----------------------------------|
B|----------------------------------|
G|-----------------------------x-x--|
D|-0-2-0-2---4b5==(4)-(4)r(4)--x-x--|
A|-0-2-0-2---------------------x-x--|
D|-0-2-0-2-2-------------------x-x--|

E|-----------------------------------||----------------------------------------|
B|-----------------------------------||o---------------------------------------|
G|-----------------------------------||--0-----------------0-------0-----------|
D|-0-2-0-2---2----(2)----------------||--0-----------------0-------0-----------|
A|-0-2-0-2---2----(2)----------------||o---------------------------------------|
D|-0-2-0-2-2-2----(2)---------12\-0--||--5---5--5--5---5s7-7-7-7-7-7---7s12-12-|
 |
 |                         ~~~
E|-----------------------------------||------------3---------------------------|
B|-----------------------------------||o-----0-----3-----------0---3-----------|
G|-----------------------------------||--0------0--------0-------0---0---------|
D|-0-2-0-2---4b5==(4)-(4)r(4)--------||--0-------------0---2--------------2--2-|
A|-0-2-0-2---------------------------||o-------------------0-------------------|
D|-0-2-0-2-2----------------------7\-||--5-------------5-----------------------|
 |
 |                                   Gtr I
E|-----------------------------------||----------------------------------------|
B|-----------------------------------||o-----0h(1)-3-----3-----0h1-3---------3-|
G|-----------------------------------||----0----0----0-------0---0---0---------|
D|-----------------------------------||--0-------------0---2--------------2----|
A|-----------------------------------||o---------------------------------------|
D|-----------------------------------||----------------------------------------|

E|--------------------------------------------------||
B|-------------------------------------------------o||
G|--0----------0------------------------------------||
D|--0----------0------------------------------------||
A|-------------------------------------------------o||
D|-12---12-12-12-12-12-12-12-12-12-12-12-12-12s7----||
|
E|-------------3-----------------------3------------||
B|-------------3-----------------------3---------3-o||
G|-------0-----0-----------------0-----0---------0--||
D|--0----0-----------------0-----0-------------0----||
A|--5----5--5--------------5-----5--5----------5---o||
D|--------------------------------------------------||
|
E|--------------------------------------------------||
B|-------0h=1--3--------3--------0h=1--3---------3-o||
G|----0-----0-----0--------0--------0-----0---------||
D|--0----------------0--------0----------------0----||
A|-------------------------------------------------o||
D|--------------------------------------------------||

[Chorus]
E||----------------------------------------|
B||o---------------------------------------|
G||--0-----------------0-------0-----------|
D||--0-----------------0-------0-----------|
A||o---------------------------------------|
D||--5---5--5--5---5s7-7-7-7-7-7---7s12-12-|
|
E||------------3---------------------------|
B||o-----0-----3-----------0---3-----------|
G||--0------0--------0-------0---0---------|
D||--0-------------0---2--------------2--2-|
A||o-------------------0-------------------|
D||--5-------------5-----------------------|
|
E||----------------------------------------|
B||o-----0h(1)-3-----3-----0h1-3---------3-|
G||----0----0----0-------0---0---0---------|
D||--0-------------0---2--------------2----|
A||o---------------------------------------|
D||----------------------------------------|

E|---------------------------------------------------||
B|--------------------------------------------------o||
G|--0----------0-------------------------------------||
D|--0----------0-------------------------------------||
A|--------------------------------------------------o||
D|-12---12-12-12-12-12-12-12-12-12-12-12-12-12s7-----||
|
E|-------------3-----------------------3-------------||
B|-------------3-----------------------3---------3--o||
G|-------0-----0-----------------0-----0---------0---||
D|--0----0-----------------0-----0-------------0-----||
A|--5----5--5--------------5-----5--5----------5----o||
D|---------------------------------------------------||
|
E|---------------------------------------------------||
B|-------0h=1--3--------3--------0h=1--3---------3--o||
G|----0-----0-----0--------0--------0-----0----------||
D|--0----------------0--------0----------------0-----||
A|--------------------------------------------------o||
D|---------------------------------------------------||

E|---------------------------------|-----------------------------------|
B|---------------------------------|-----------------------------------|
G|---------------------------------|-----------------------------------|
D|-0-2-0-2---2----(2)------------2-|-0-2-0-2---2----(2)----------------|
A|-0-2-0-2---2----(2)--------------|-0-2-0-2---2----(2)----------------|
D|-0-2-0-2-2-2----(2)----------2---|-0-2-0-2-2-2----(2)----------14\---|
|
 |                         ~~~                               ~~~
E|---------------------------------|-----------------------------------|
B|---------------------------------|-----------------------------------|
G|-----------------------------x-x-|------------------------------x--x-|
D|-0-2-0-2---4b5==(4)-(4)r(4)--x-x-|-0-2-0-2---4b5==(4)-(4)r(4)---x--x-|
A|-0-2-0-2---------------------x-x-|-0-2-0-2----------------------x--x-|
D|-0-2-0-2-2-------------------x-x-|-0-2-0-2-2--------------------x--x-|

E|---------------------------------|-----------------------------------||
B|---------------------------------|-----------------------------------||
G|---------------------------------|-----------------------------------||
D|-0-2-0-2---2----(2)----------2-2-|-0-2-0-2---2----(2)----------------||
A|-0-2-0-2---2----(2)----------2---|-0-2-0-2---2----(2)----------------||
D|-0-2-0-2-2-2----(2)----------2---|-0-2-0-2-2-2----(2)---------12\-0--||
|
 |                         ~~~                               ~~~
E|---------------------------------|-----------------------------------||
B|---------------------------------|-----------------------------------||
G|-----------------------------x-x-|-----------------------------------||
D|-0-2-0-2---4b5==(4)-(4)r(4)--x-x-|-0-2-0-2---4b5==(4)-(4)r(4)--------||
A|-0-2-0-2---------------------x-x-|-0-2-0-2---------------------------||
D|-0-2-0-2-2-------------------x-x-|-0-2-0-2-2----------------------7\-||

[Out-Chorus]
E||----------------------------------------|
B||o---------------------------------------|
G||--0-----------------0-------0-----------|
D||--0-----------------0-------0-----------|
A||o---------------------------------------|
D||--5---5--5--5---5s7-7-7-7-7-7---7s12-12-|
 |
E||------------3---------------------------|
B||o-----0-----3-----------0---3-----------|
G||--0------0--------0-------0---0---------|
D||--0-------------0---2--------------2--2-|
A||o-------------------0-------------------|
D||--5-------------5-----------------------|
 |
 |   Gtr I
E||----------------------------------------|
B||o-----0h(1)-3-----3-----0h1-3---------3-|
G||----0----0----0-------0---0---0---------|
D||--0-------------0---2--------------2----|
A||o---------------------------------------|
D||----------------------------------------|

                                                    4x
E|--------------------------------------------------||-------------------------------*|
B|-------------------------------------------------o||-------------------------------*|
G|--0----------0------------------------------------||-------------------------------*|
D|--0----------0------------------------------------||-0-2-0-2---2----(2)------------*|
A|-------------------------------------------------o||-0-2-0-2---2----(2)------------*|
D|-12---12-12-12-12-12-12-12-12-12-12-12-12-12s7----||-0-2-0-2-2-2----(2)------------*|
 |
 |                                                                             ~~~
 |                                                  4x
E|-------------3-----------------------3------------||-------------------------------*|
B|-------------3-----------------------3---------3-o||-------------------------------*|
G|-------0-----0-----------------0-----0---------0--||-------------------------------*|
D|--0----0-----------------0-----0-------------0----||-0-2-0-2---4b5==(4)-(4)r(4)----*|
A|--5----5--5--------------5-----5--5----------5---o||-0-2-0-2-----------------------*|
D|--------------------------------------------------||-0-2-0-2-2---------------------*|
 |
 |                                                  4x
E|--------------------------------------------------||-------------------------------*|
B|-------0h=1--3--------3--------0h=1--3---------3-o||-------------------------------*|
G|----0-----0-----0--------0--------0-----0---------||-------------------------------*|
D|--0----------------0--------0----------------0----||-------------------------------*|
A|-------------------------------------------------o||-------------------------------*|
D|--------------------------------------------------||-------------------------------*|


************************************

| h    Hammer-on
| p    Pull-off
| (n)  Ghost note
| \    Slide down
| x    Dead note
| b    Bend
| ~    Vibrato
| s    Slide  

************************************
Suggest correction
comments
print report bad tab
3 comments total.
0 reply
jimbopo 692 Mar 06, 2008 09:17 AM

I knew I wasn't crazy! I knew there was a hammer-on on the B string from frett 1 to 3! I knew there was more to the song! Nice post! It looks seamless!

0 reply
jimbopo 692 Mar 06, 2008 09:24 AM

ahem... I meant *0 to 1

0 reply
beandog10 10 Apr 27, 2009 05:05 PM

this is like perfect. great job dude

guest
You may want to rate the tab now too:
select rating
Wanna post a correction for this tab? Suggest correction