Oops, an error
Loading. Please wait.

Certainty tab

version 1
version 1

Whole song

  • Tab is based on the studio version of the song.
  • Tabbed the correct elemental riff.
by Temples
625 views 27 this week
no commentswrite comment
1 2 3 4 5
x 3
add to favorites
×
Save as Personal and add changes to this tab that will be seen only by you. Learn more ›
×
You can save this tab as Personal to edit and correct it or add notes. All changes will be seen only by you. Learn more »
launch autoscroll
font size
0
reset
how to read this tab
guitar tuner
edit
Autoscroll
slow
fast
+/-
esc
set tempo
stop
Author
Difficulty
About this tab version
Tab is based on the studio version of the song. Was this info helpful? Yes No
[Intro]
e|----15-------------------15----------15-18-17-15-20-18-17-15----------15----|
B|-------17-18-17-15----------17-17-18-------------------------18-17-18-------|
G|-17----------------17-16-------------------------------------------------17-|(x2)
D|----------------------------------------------------------------------------|
A|----------------------------------------------------------------------------|
E|----------------------------------------------------------------------------|

[Verse] 
(Guitar is paused)
I've got, I've got, the picture and the details
(Guitar is paused)
Outside, under within the sights
(Guitar is paused)
We stand we land the form of parallelogram
(Guitar is paused)
On the sun to the neverland
(Guitar is paused)
We appear go on

[Riff 1]
e|----15-------------------15----------15-18-17-15-20-18-17-15----------15----|
B|-------17-18-17-15----------17-17-18-------------------------18-17-18-------|
G|-17----------------17-16-------------------------------------------------17-|(x2)
D|----------------------------------------------------------------------------|
A|----------------------------------------------------------------------------|
E|----------------------------------------------------------------------------|

[Verse]
(Guitar is paused)
Tonight, the bridge is growing to the other side
(Guitar is paused)
Onto, off and beneath the sun
e|------------------------------------------------------------|
B|------------------------------------------------------------|
G|------------------------------------------------------------|
D|--------------------------------0h1p0p1p0h1p0h3p0h1p0h3p0---|
A|----------------------------------------------------------3-|
E|------------------------------------------------------------|
  You land lone there disposed to never neverland

(Guitar is paused)
In a boat to the neverland
(Guitar is paused)
We appear and recall

[Bridge]
    Fm             A#
e|--x--------------6----------------|
B|--1--------------6----------------|
G|--1--------------7----------------|
D|--3--------------8----------------|
A|--3--------------8----------------|
E|--1--------------x----------------|
      The way is a way, think slowly

    Fm             A#
e|--x--------------6----------------|
B|--1--------------6----------------|
G|--1--------------7----------------|
D|--3--------------8----------------|
A|--3--------------8----------------|
E|--1--------------x----------------|
      The sun is standing lighted

   Cm          A#          G#       C#7
e|-x-----------x-----------x--------x------------|
B|-4-----------3-----------4--------6------------|
G|-5-----------3-----------5--------4-(Let ring)-|
D|-5-----------3-----------6--------6------------|
A|-3-----------1-----------6--------4------------|
E|-x-----------x-----------4--------x------------|
   Ah ah ah ah ah ah ah ou ouuuu

[Chorus]
          C                           Em
e|--------0---------------------------x----|
B|--------1---------------------------0----|
G|--------0---------------------------0----|
D|--------2---------------------------2----|
A|--------3---------------------------2----|
E|--------0---------------------------0----|
I want to know that certainties in my life

          C                            Em
e|--------0----------------------------x-----|
B|--------1----------------------------0-----|
G|--------0----------------------------0-----|
D|--------2----------------------------2-----|
A|--------3----------------------------2-----|
E|--------0----------------------------0-----|
I want to know that certainties in the light

          C                           Em
e|--------0---------------------------x----|
B|--------1---------------------------0----|
G|--------0---------------------------0----|
D|--------2---------------------------2----|
A|--------3---------------------------2----|
E|--------0---------------------------0----|
I want to know that certainties in my life

      D#         G#     C
e|----6----------x------x-----|
B|----8----------4------5-----|
G|----8----------5------5-----|
D|----8----------6------5-----|
A|----6----------6------3-----|
E|----x----------4------x-----|
Isn't lonely and more defined

[Verse]
(Guitar is paused)
You've got, you've got the mission and the pieces
(Guitar is paused)
In hand off beneath you stand
e|-------------------------------------------------------|
B|-------------------------------------------------------|
G|-------------------------------------------------------|
D|---------------------------0h1p0p1p0h1p0h3p0h1p0h3p0---|
A|-----------------------------------------------------3-|
E|-------------------------------------------------------|
We turn we make the sceens to never neverland

(Guitar is paused)
On the sun to the neverland
(Guitar is paused)
We appear to rule

[Bridge]
    G#             A#
e|--4--------------6----------------|
B|--4--------------6----------------|
G|--5--------------7----------------|
D|--6--------------8----------------|
A|--6--------------8----------------|
E|--x--------------x----------------|
      The way is a way, think slowly

    G#                 A#
e|--4------------------6----------------|
B|--4------------------6----------------|
G|--5------------------7----------------|
D|--6------------------8----------------|
A|--6------------------8----------------|
E|--x------------------x----------------|
      The sky turning, sending light in

e|----15-------------------15----------15-18-17-15-20-18-17-15----------15----|
B|-------17-18-17-15----------17-17-18-------------------------18-17-18-------|
G|-17----------------17-16-------------------------------------------------17-|
D|----------------------------------------------------------------------------|
A|----------------------------------------------------------------------------|
E|----------------------------------------------------------------------------|
  Now

[Chorus]
          C                           Em
e|--------0---------------------------x----|
B|--------1---------------------------0----|
G|--------0---------------------------0----|
D|--------2---------------------------2----|
A|--------3---------------------------2----|
E|--------0---------------------------0----|
I want to know that certainties in my life

          C                            Em
e|--------0----------------------------x----|
B|--------1----------------------------0----|
G|--------0----------------------------0----|
D|--------2----------------------------2----|
A|--------3----------------------------2----|
E|--------0----------------------------0----|
I want to know that certainties in the light

          C                           Em
e|--------0---------------------------x----|
B|--------1---------------------------0----|
G|--------0---------------------------0----|
D|--------2---------------------------2----|
A|--------3---------------------------2----|
E|--------0---------------------------0----|
I want to know that certainties in my life

      D#         G#     C
e|----6----------x------x-----|
B|----8----------4------5-----|
G|----8----------5------5-----|
D|----8----------6------5-----|
A|----6----------6------3-----|
E|----x----------4------x-----|
Isn't lonely and more defined

[Outro]
e|----8-----------------8----------8-11-10-8-13-11-10-8----------8----|
B|------10-11-10-8--------10-10-11----------------------11-10-11------|
G|-10--------------10-9--------------------------------------------11-|(x2)
D|--------------------------------------------------------------------|
A|--------------------------------------------------------------------|
E|--------------------------------------------------------------------|

   Fm      E    E         Fm    Am  E       Am  Fm
e|-0-------0----0---0-----1-0---0---0----12-0---0-|
B|-1---1---0----0-3---1---1---3-1---0-15----1---1-|
G|-2-------1----1---------2-----2--13-------2---2-|
D|-3-----2-2\15-2---------3-----2--14-------2---3-|
A|-3-3-----2\14-2-------2-x-----0--14-------0---3-|
E|-x-------0----0-------0-x-----x---0-------x-3-x-|


************************************

| h  Hammer-on
| p  Pull-off
| x  Dead note
| \  Slide down

************************************

            
            
Suggest correction
Creating personal tab
Creating personal tab
You can edit any tab online and save it as your Personal.

You can edit, replace or remove any tab part or add personal notes – all changes will be seen only by you.

Personal tabs can be accessed anytime from any device, even offline.
Learn more »
Give kudos to tab author, rate the tab!
1 2 3 4 5
comments
print report bad tab
guest
You may want to rate the tab now too:
select rating
Wanna post a correction for this tab? Suggest correction