Oops, an error
Loading. Please wait.

Certainty tab

version 2
version 2

Whole song

  • Tab is based on the studio version of the song.
  • Tabbed the correct elemental riff.
by Temples
109 views 1 this week
no commentswrite comment
1 2 3 4 5
2 more votes to show rating
add to favorites
×
Save as Personal and add changes to this tab that will be seen only by you. Learn more ›
×
You can save this tab as Personal to edit and correct it or add notes. All changes will be seen only by you. Learn more »
launch autoscroll
font size
0
reset
how to read this tab
guitar tuner
edit
Autoscroll
slow
fast
+/-
esc
set tempo
stop
Author
About this tab version
Tabbed the correct elemental riff. Was this info helpful? Yes No
[Intro]
e|-----15-12--13-12---------------------15--12-|--12-13-15-18--18-18-17-15--20--18-16-15--13--12-13-15-----|
B|-13---------------15-13--12--12-12-12--------|-------------------------------------------------------13--|
G|---------------------------------------------|-----------------------------------------------------------|
D|---------------------------------------------|-----------------------------------------------------------|
A|---------------------------------------------|-----------------------------------------------------------|
E|---------------------------------------------|-----------------------------------------------------------|x2

[Verse]
e|---------------|--------------------------|
B|---------------|--------------------------|
G|---------------|--------------------------|
D|---------------|--------------------------|
A|---------------|--------------------------|
E|---------------|--------------------------| x4 

I've got, I've got, the picture and the details
Outside, under within the sights
We stand we land the form of parallelogram
On the sun to the neverland. We appear go on

e|-----15-12--13-12---------------------15--12-|--12-13-15-18--18-18-17-15--20--18-16-15--13--12-13-15-----|
B|-13---------------15-13--12--12-12-12--------|-------------------------------------------------------13--|
G|---------------------------------------------|-----------------------------------------------------------|
D|---------------------------------------------|-----------------------------------------------------------|
A|---------------------------------------------|-----------------------------------------------------------|
E|---------------------------------------------|-----------------------------------------------------------|x2

[Verse] 
Tonight, the bridge is growing to the other side
On que, off and beneath the sun

e|---------------------------------------------|-----------------------------------------------------------|
B|---------------------------------------------|-----------------------------------------------------------|
G|---------------------------------------------|-----------------------------------------------------------|
D|---------------------------------------------|-------------------0h1p0h1p0h1p0h1p0h1p0h1p0h3p1p0h--------|
A|---------------------------------------------|---------------------------------------------------3-------|
E|---------------------------------------------|-----------------------------------------------------------|

   You land lone there disposed                                  to never neverland

In a boat to the Netherlands
We appear and recall

[Pre-Chorus]
     Fm           A#              Fm           A#
e|----x------------6----|----------x------------6---|
B|----1------------6----|----------1------------6---|
G|----1------------7----|----------1------------7---|
D|----3------------8----|----------3------------8---|
A|----3------------8----|----------3------------8---|
E|----1------------x----|----------1------------x---| 

The way is a way, think slowly. The sun is standing lightly

  Cm  A#     G#  C#7
e|-x---x----|-x---x---|
B|-4---3----|-4---6---|
G|-5---3----|-5---4---|
D|-5---3----|-6---6---|
A|-3---1----|-6---4---|
E|-x---x----|-4---x---|

[Chorus]
e|--------0-------|----0----------------------|
B|--------1-------|----0----------------------|
G|--------0-------|----0----------------------|
D|--------2-------|----2----------------------|
A|--------3-------|----2----------------------|
E|--------x-------|----0----------------------| x3

I want to know that certainty is in my life
I want to know that certainty is in the night
I want to know that certainty is in my life

e|----6------x--|----x----------------------|
B|----8------4--|----5----------------------|
G|----8------5--|----5----------------------|
D|----8------6--|----5----------------------|
A|----6------6--|----3----------------------|
E|----x------4--|----x----------------------|

OR

e|--------------|--12-13-15-18--18-18-17-15--20--18-16-15--13--12-13-15-----|
B|--------------|-------------------------------------------------------13--|
G|--------------|-----------------------------------------------------------|
D|--------------|-----------------------------------------------------------|
A|--------------|-----------------------------------------------------------|
E|--------------|-----------------------------------------------------------|

Isn't lonely and more defined

[Verse]
e|---------------|--------------------------|
B|---------------|--------------------------|
G|---------------|--------------------------|
D|---------------|--------------------------|
A|---------------|--------------------------|
E|---------------|--------------------------| x2

You've got, you've got the mission and the pieces
In hand off beneath you stand

e|---------------------------------------------|-----------------------------------------------------------|
B|---------------------------------------------|-----------------------------------------------------------|
G|---------------------------------------------|-----------------------------------------------------------|
D|---------------------------------------------|-------------------0h1p0h1p0h1p0h1p0h1p0h1p0h3p1p0h--------|
A|---------------------------------------------|---------------------------------------------------3-------|
E|---------------------------------------------|-----------------------------------------------------------|
   We turn we make the sceens                                   to never neverland

e|---------------|--------------------------|
B|---------------|--------------------------|
G|---------------|--------------------------|
D|---------------|--------------------------|
A|---------------|--------------------------|
E|---------------|--------------------------| 

On the sun to the Netherlands. We appear to rule

[Pre-Chorus]
     Fm           A#              Fm           A#
e|----x------------6----|----------x------------6---|
B|----1------------6----|----------1------------6---|
G|----1------------7----|----------1------------7---|
D|----3------------8----|----------3------------8---|
A|----3------------8----|----------3------------8---|
E|----1------------x----|----------1------------x---| 

The way is a way, think slowly. The sun is standing lightly

e|-----15-12--13-12---------------------15--12-|--12-13-15-18--18-18-17-15--20--18-16-15--13--12-13-15-----|
B|-13---------------15-13--12--12-12-12--------|-------------------------------------------------------13--|
G|---------------------------------------------|-----------------------------------------------------------|
D|---------------------------------------------|-----------------------------------------------------------|
A|---------------------------------------------|-----------------------------------------------------------|
E|---------------------------------------------|-----------------------------------------------------------|


[Chorus]
e|--------0-------|----0----------------------|
B|--------1-------|----0----------------------|
G|--------0-------|----0----------------------|
D|--------2-------|----2----------------------|
A|--------3-------|----2----------------------|
E|--------x-------|----0----------------------| x3

I want to know that certainty is in my life
I want to know that certainty is in the night
I want to know that certainty is in my life

e|----6------x--|----x----------------------|
B|----8------4--|----5----------------------|
G|----8------5--|----5----------------------|
D|----8------6--|----5----------------------|
A|----6------6--|----3----------------------|
E|----x------4--|----x----------------------|

OR

e|--------------|--12-13-15-18--18-18-17-15--20--18-16-15--13--12-13-15-----|
B|--------------|-------------------------------------------------------13--|
G|--------------|-----------------------------------------------------------|
D|--------------|-----------------------------------------------------------|
A|--------------|-----------------------------------------------------------|
E|--------------|-----------------------------------------------------------|

Isn't lonely and more defined

[Outro]

e|----8-5--6-5---------------8-5---|-5-6-8-11--11-11-10-8--13-11-9-8--6--5-6-8-------|
B|-6-----------8-5--5--5-5-5-------|-------------------------------------------6-----|
G|---------------------------------|-------------------------------------------------|
D|---------------------------------|-------------------------------------------------|
A|---------------------------------|-------------------------------------------------|
E|---------------------------------|-------------------------------------------------| x2


************************************

| x   Dead note
| h   Hammer-on
| p   Pull-off

************************************

            
            
Suggest correction
Creating personal tab
Creating personal tab
You can edit any tab online and save it as your Personal.

You can edit, replace or remove any tab part or add personal notes – all changes will be seen only by you.

Personal tabs can be accessed anytime from any device, even offline.
Learn more »
Give kudos to tab author, rate the tab!
1 2 3 4 5
comments
print report bad tab
guest
You may want to rate the tab now too:
select rating
Wanna post a correction for this tab? Suggest correction