Oops, an error
Loading. Please wait.

The Elysian Fields Tab

by TeN
423 views 1 this week
no commentswrite comment
1 2 3 4 5
please rate
add to favorites
launch autoscroll
font size
0
reset
how to read this tab
guitar tuner
Autoscroll
slow
fast
+/-
esc
set tempo
stop
Help us to improve Ultimate-Guitar.com Take our survey!
×
TEN – The Elysian Fields
from the album Twilight Chronicles (2006)

Intro:
e---------|--------------------------------|------------------------|
B------9--|-10-----10-12-10-9-10--------9--|-10----12------------9--|
G--11-----|-------------------------11-----|-----------11----11-----|
D---------|--------------------------------|------------------------|
A---------|--------------------------------|------------------------|
E---------|--------------------------------|------------------------|
            F#m               D              A         B

e---------------------------------|-----------------------|
B-10-----10-12-10-9-10--------9---|-10----12-----------9--|
G-------------------------11------|-----------9----11-----|
D---------------------------------|-----------------------|
A---------------------------------|-----------------------|
E---------------------------------|-----------------------|
  F#m               D               A         E

e---------------------------------|------------------------|
B-10-----10-12-10-9-10--------9---|-10----12------------9--|
G-------------------------11------|-----------11----11-----|
D---------------------------------|------------------------|
A---------------------------------|------------------------|
E---------------------------------|------------------------|
  F#m               D               A         B

e-----------------------------|---------------|
B-10-----12--10--9------------|---------------|
G--------------------11---9---|-11------------|
D-----------------------------|---------------|
A-----------------------------|---------------|
E-----------------------------|---------------|
  D              E              Bsus4     B

repeat Intro

Verse 1:
      F#m           D                    A              B
Every blade laid to rest through death's shrineless remedy
      F#m             D            A            C#
Every stain marks the test of each timeless memory
         F#m            D               A             B
When the last breath is aired from this soulless sorcery
         D         E          Bsus4    B
As we're born we return here alone

Verse 2:
       F#m       D               A            B
Do the souls manifest themselves anger and mistrust
         F#m             D            A           C#
When the lives that they cherished so easily were crushed
         F#m          D          A            B
As their bones slowly perish and crumble into dust
       D               E        Bsus4    B
So the gods call their warriors home

Chorus:
F#m      C#  A         B
Pure melody, raw threnody
D           F#m          D       C#
Death and rebirth to the magical madrigal
F#m         C#      A             B
Born to the shield, sword and the steel
D           F#m          D          C#     F#m
Dust of the earth blown across the Elysian Fields

Interlude:
e---------|--------------------------------|------------------------|
B------9--|-10-----10-12-10-9-10--------9--|-10----12------------9--|
G--11-----|-------------------------11-----|-----------11----11-----|
D---------|--------------------------------|------------------------|
A---------|--------------------------------|------------------------|
E---------|--------------------------------|------------------------|
            F#m               D              A         B

e---------------------------------|-----------------------|
B-10-----10-12-10-9-10--------9---|-10----12-----------9--|
G-------------------------11------|-----------9----11-----|
D---------------------------------|-----------------------|
A---------------------------------|-----------------------|
E---------------------------------|-----------------------|
  F#m               D               A         E

e---------------------------------|------------------------|
B-10-----10-12-10-9-10--------9---|-10----12------------9--|
G-------------------------11------|-----------11----11-----|
D---------------------------------|------------------------|
A---------------------------------|------------------------|
E---------------------------------|------------------------|
  F#m               D               A         B

e-----------------------------|---------------------|
B-10-----12--10--9------------|---------------------|
G--------------------11---9---|-11-13-11-9-11-------|
D-----------------------------|---------------------|
A-----------------------------|---------------------|
E-----------------------------|---------------------|
  D              E              Bsus4           B

Verse 3:
      F#m       D            A              B
Every season is signless for legions of the grave 
       F#m          D           A           C#
As the years fall behind us the centuries remain 
        F#m            D          A            B
But our hearts still remind us so proud and unashamed 
       D         E             Bsus4    B
What a legend we carved in the stone

repeat Chorus

Solo rhythm 1:
F#m, D, A, B
F#m, D, A, C#
F#m, D, A, B
D, E, Bsus4, B

Verse 4:
       F#m         D         A              B
Do the eyes on the endless horizon wait for me 
         F#m       D           A                 C#
Will she die never knowing how much she meant to me 
         F#m         D           A               B
Will the love that I gave her be all she'll ever need 
       D              E            Bsus4    B
What remains when the spirits have flown 

repeat Chorus

repeat Intro

Solo rhythm 2:
F#m, C#, A, B
D, F#m, D, C#

repeat Solo rhythm 2

repeat Chorus

repeat 3/4 of Intro

Ending:
       D          E      F#m  
Blown across the Elysian Fields...
Suggest correction
Give kudos to tab author, rate the tab!
1 2 3 4 5
comments
print report bad tab
guest
You may want to rate the tab now too:
select rating
Wanna post a correction for this tab? Suggest correction