Oops, an error
Loading. Please wait.

I Will Fly Tab

version 1
version 1

Whole song

28,711 views 15 this week
no commentswrite comment
1 2 3 4 5
x 8
add to favorites
launch autoscroll
font size
0
reset
how to read this tab
guitar tuner
Autoscroll
slow
fast
+/-
esc
set tempo
stop
Help us to improve Ultimate-Guitar.com Take our survey!
×
Author
Standard Tuning EADGBE

[Chords used throughout song]
e|--3---7---5---x---x---------------------------|
B|--5---8---6---3---5---------------------------|
G|--4---7---5---4---6---------------------------|
D|--5---9---7---3---5---------------------------|
A|--3---7---5---5---7---------------------------|
E|--x---x---x---3---5---------------------------|

[Intro]
e|--3--3------x--7------x--5------x-----------------------------|
B|--5----5----8----8----6----6----3-----------------------------|
G|--4---------7---------5---------4-----------------------------|
D|--5---------9---------7---------3-----------------------------|
A|--3---------7---------5---------5-----------------------------|
E|--x---------x---------x---------3-----------------------------|

[Verse] 
(listen to song for strumming pattern and timing)
e|--3---7---5---x------------------------------|
B|--5---8---6---3------------------------------|
G|--4---7---5---4------------------------------|
D|--5---9---7---3------------------------------|
A|--3---7---5---5------------------------------|
E|--x---x---x---3------------------------------|
"You know all the things I've said... And things I gave to you."

e|--3---7---5---x------------------------------|
B|--5---8---6---3------------------------------|
G|--4---7---5---4------------------------------|
D|--5---9---7---3------------------------------|
A|--3---7---5---5------------------------------|
E|--x---x---x---3------------------------------|
"There's a chance for me to say... And you know that its-"

e|----7-------x--------------5----------x------|
B|----8-------5--------------6----------3------|
G|----7-------6--------------5----------4------|
D|----9-------5--------------7----------3------|
A|----7-------7--------------5----------5------|
E|----x-------5--------------x----------3------|
   "true. To be with you is all that I need... Cause with-"

e|----7-------x-------------------------5-----------x------|
B|----8-------5-------------------------6-----------3------|
G|----7-------6-------------------------5-----------4------|
D|----9-------5-------------------------7-----------3------|
A|----7-------7-------------------------5-----------5------|
E|----x-------5-------------------------x-----------3------|
   "you, my life seems brighter... And these are.. I wanna say."

[Chorus]
e|--3---7---5---x------------------------------|
B|--5---8---6---3------------------------------|
G|--4---7---5---4------------------------------|
D|--5---9---7---3------------------------------|
A|--3---7---5---5------------------------------|
E|--x---x---x---3------------------------------|
"I will fly... until the end of time."

e|--3---7---5---x-------3----------------------|
B|--5---8---6---3-------5----------------------|
G|--4---7---5---4-------4----------------------|
D|--5---9---7---3-------5----------------------|
A|--3---7---5---5-------3----------------------|
E|--x---x---x---3-------x----------------------|
"Why are you so far away? ... to get myself close to you"


************************************

| x  Dead note

************************************
Suggest correction
comments
print report bad tab
guest
You may want to rate the tab now too:
select rating
Wanna post a correction for this tab? Suggest correction