Oops, an error
Loading. Please wait.

Emergency Emergency Tab

70 views 1 this week
no commentswrite comment
1 2 3 4 5
please rate
add to favorites
launch autoscroll
font size
0
reset
how to read this tab
guitar tuner
Tab Pro tools
  • play this tab
  • loop segment
  • change instrument
  • show fretboard
  • metronome
Autoscroll
slow
fast
+/-
esc
set tempo
stop
Contributor
Difficulty
Tuning
novice
D G C F A D
E ------------------------|
B ------------------------|
G ------------------------|
D --7(let ring)---77------|
A --7(let ring)---77------|      (x4)
D --7(let ring)---77------|

VERSE

E -----------------------|
B -----------------------|
G --------5-7------------|
D --7-XX--5-7--7-XXXX----|
A --7-XX--3-5--7-XXXX----|    (x3)
D --7-XX-------7-XXXX----|


E --------------------|
B --------------------|
G --------------------|
D --9----5------------|
A --9----5------------|   (REPEAT)
D --9----5------------|

We won't stand silent.....

E-------------------|
B-------------------|
G-------------------|
D---7--9--10--------|
A---7--9--10--------|  (X5) (BACK TO VERSE)
D---7--9--10--------|

We won't back down...

E-------------------------------------|
B-------------------------------------|
G----------777--8--7--8--7--5--4--2---|
D-777--XX--777--8--7--8--7--5--4--2---|
A-777--XX--555--6--5--6--5--3--2--0---|
D-777--XX-----------------------------|

OUTRO

E----------------------|
B----------------------|
G--2-2-2-2-2-2-2-------|
D--2-2-2-2-2-2-2-------|
A--0-0-0-0-0-0-0-------| (X4)
D----------------------|
            X  X        X X


FINISH

E---------------------------|
B---------------------------|
G--8--7--8--7--5--4--2------|
D--8--7--8--7--5--4--2------|
A--6--5--6--5--3--2--0------|
D---------------------------|
comments
We did not receive enough feedback on this tab! Please rate:
print report bad tab
1 2 3 4 5
I want to post or [tab]
guest
You may want to rate the tab now too:
select rating
Please do not post tabs as comments. Select "correction" instead!