Oops, an error
Loading. Please wait.

Dont Come Back tab

version 1
version 1

Whole song

374 views 1 this week
no commentswrite comment
1 2 3 4 5
3 more votes to show rating
add to favorites
×
Save as Personal and add changes to this tab that will be seen only by you. Learn more ›
×
You can save this tab as Personal to edit and correct it or add notes. All changes will be seen only by you. Learn more »
launch autoscroll
font size
0
reset
how to read this tab
guitar tuner
edit
Autoscroll
slow
fast
+/-
esc
set tempo
stop
Artist:  Ten Yard Fight
Song:  Don't Come Back
Album:  The Only Way
Tabbed by:  Rick
AIM:  rickrack97

Chords:

A5   x022xx   B5  x244xx
Bb5  x133xx   F#2 x9-11-11xx
C5   x355xx   G5  355xxx
D5   x577xx
F5   133xxx


[Intro/Verse]
E|-----------------------------|
B|-----------------------------|
G|-2-2--2-5-5--5-7-7--7-3-3-3--|
D|-2-2--2-5-5--5-7-7--7-3-3-3--|
A|-0-0--0-3-3--3-5-5--5-1-1-1--|
E|-----------------------------|

[Chorus]
E|--------------------------------------------------|
B|--------------------------------------------------|
G|--4-4-4-4-11-11-11-11--2-2--2-5-5--5-7-7--7-3-3-3-|
D|--4-4-4-4-11-11-11-11--2-2--2-5-5--5-7-7--7-3-3-3-|
A|--2-2-2-2--9--9--9--9--0-0--0-3-3--3-5-5--5-1-1-1-|
E|--------------------------------------------------|

(This is played right before the second verse)
E|-----------------------------------------|
B|---------------------------------------S-|
G|----------5-----2-2--2-5-5--5-7-7--7-3-T-|
D|-3--------5-5---2-2--2-5-5--5-7-7--7-3-O-|
A|-3--------3-5---0-0--0-3-3--3-5-5--5-1-P-|
E|-1----------3----------------------------|

[Outro]
E|----------------|
B|----------------|
G|-2-----------3--|
D|-2------3----3--|  x2
A|-0------3----1--|
E|--------1-------|

(Play this x2 normal, then x2 palm muted)
E|-----------------------------------------------------------------|
B|-----------------------------------------------------------------|
G|-2-2-2-2-2-2-2-2-2-2-2-2-2-2-2-2-----------------3-3-3-3-3-3-3-3-|
D|-2-2-2-2-2-2-2-2-2-2-2-2-2-2-2-2-3-3-3-3-3-3-3-3-3-3-3-3-3-3-3-3-| x4
A|-0-0-0-0-0-0-0-0-0-0-0-0-0-0-0-0-3-3-3-3-3-3-3-3-1-1-1-1-1-1-1-1-|     
E|---------------------------------1-1-1-1-1-1-1-1-----------------|

            
            
Suggest correction
Creating personal tab
Creating personal tab
You can edit any tab online and save it as your Personal.

You can edit, replace or remove any tab part or add personal notes – all changes will be seen only by you.

Personal tabs can be accessed anytime from any device, even offline.
Learn more »
Give kudos to tab author, rate the tab!
1 2 3 4 5
comments
print report bad tab
guest
You may want to rate the tab now too:
select rating
Wanna post a correction for this tab? Suggest correction