Oops, an error
Loading. Please wait.

The Only Way album tab

version 1
version 1

Album

Whole song

13 views 1 this week
no commentswrite comment
1 2 3 4 5
3 more votes to show rating
add to favorites
×
Save as Personal and add changes to this tab that will be seen only by you. Learn more ›
×
You can save this tab as Personal to edit and correct it or add notes. All changes will be seen only by you. Learn more »
launch autoscroll
font size
0
reset
how to read this tab
guitar tuner
edit
Autoscroll
slow
fast
+/-
esc
set tempo
stop
Author
Difficulty
1. Glory Bound  

2. Actions Speak        

3. The Proof    

4. The Only Way 

5. What I Say   

6. Don't Come Back      

7. No Place

1. GLORY BOUND

[Intro]
e|---------------------------------------------------------------------------|
b|---------------------------------------------------------------------------|
G|--2-2-2---------5-5-5-5-5--7---2-2-2---------5-5-5-5--7-7--5-5--7-7--5-5---|
D|--2-2-2--3-3-3--5-5-5-5-5--7---2-2-2--3-3-3--5-5-5-5--7-7--5-5--7-7--5-5---|
A|--0-0-0--3-3-3--3-3-3-3-3--5---0-0-0--3-3-3--3-3-3-3--5-5--3-3--5-5--3-3---|
E|---------1-1-1------------------------1-1-1--------------------------------|

[Verse]
e|--------------------------------------------|------------------------------|
b|--------------------------------------------|------------------------------|
G|--2-2-2---------5-5-5-5-5--7-7-7-7-7-7-7-7--|--2-2-2---------5-5-5-5-5-----|
D|--2-2-2--3-3-3--5-5-5-5-5--7-7-7-7-7-7-7-7--|--2-2-2--3-3-3--5-5-5-5-5-----|
A|--0-0-0--3-3-3--3-3-3-3-3--5-5-5-5-5-5-5-5--|--0-0-0--3-3-3--3-3-3-3-3-----|
E|---------1-1-1------------------------------|---------1-1-1----------------|

e|----------------------|----------------------------------------------------|
b|----------------------|----------------------------------------------------|
G|--7-7--5-5--7-7--5-5--|--2-2-2---------5-5-5-5-5--7-7--9-9--10-10--9-9-----|
D|--7-7--5-5--7-7--5-5--|--2-2-2--3-3-3--5-5-5-5-5---------------------------|
A|--5-5--3-3--5-5--3-3--|--0-0-0--3-3-3--3-3-3-3-3--5-5--7-7--8--8---7-7-----|
E|----------------------|---------1-1-1--------------------------------------|

e|-----------------------------------------------|---------------------------|
b|-----------------------------------------------|---------------------------|
G|--2-2-2---------5-5-5-5-5--7-7--5-5--7-7--5-5--|--7-7---------7-7--5-5-5---|
D|--2-2-2--3-3-3--5-5-5-5-5--7-7--5-5--7-7--5-5--|--7-7--3-3-3--7-7--5-5-5---|
A|--0-0-0--3-3-3--3-3-3-3-3--5-5--3-3--5-5--3-3--|--5-5--3-3-3--5-5--3-3-3---|
E|---------1-1-1---------------------------------|-------1-1-1---------------|
                             PMPM PMPM PMPM PMPM

[Chorus]
e|-------------------------------------------|
b|-------------------------------------------|
G|--2-2-2-2--4-4-4-4--5-5-5-5-5-5-5-5--------|
D|--2-2-2-2--4-4-4-4--5-5-5-5-5-5-5-5--------| x2
A|--0-0-0-0--2-2-2-2--3-3-3-3-3-3-3-3--------|
E|-------------------------------------------|

e|-------------------------------|
b|-------------------------------|
G|--7-5-4-2----------------------|
D|--7-5-4-2----------------------|
A|--5-3-2-0----------------------|
E|-------------------------------|
    PMPMPMPM  

[Verse]
e|--------------------------------------------|------------------------------|
b|--------------------------------------------|------------------------------|
G|--2-2-2---------5-5-5-5-5--7-7-7-7-7-7-7-7--|--2-2-2---------5-5-5-5-5-----|
D|--2-2-2--3-3-3--5-5-5-5-5--7-7-7-7-7-7-7-7--|--2-2-2--3-3-3--5-5-5-5-5-----|
A|--0-0-0--3-3-3--3-3-3-3-3--5-5-5-5-5-5-5-5--|--0-0-0--3-3-3--3-3-3-3-3-----|
E|---------1-1-1------------------------------|---------1-1-1----------------|

e|----------------------|----------------------------------------------------|
b|----------------------|----------------------------------------------------|
G|--7-7--5-5--7-7--5-5--|--2-2-2---------5-5-5-5-5--7-7--9-9--10-10--9-9-----|
D|--7-7--5-5--7-7--5-5--|--2-2-2--3-3-3--5-5-5-5-5---------------------------|
A|--5-5--3-3--5-5--3-3--|--0-0-0--3-3-3--3-3-3-3-3--5-5--7-7--8--8---7-7-----|
E|----------------------|---------1-1-1--------------------------------------|

e|-----------------------------------------------|---------------------------|
b|-----------------------------------------------|---------------------------|
G|--2-2-2---------5-5-5-5-5--7-7--5-5--7-7--5-5--|--7-7---------7-7--5-5-5---|
D|--2-2-2--3-3-3--5-5-5-5-5--7-7--5-5--7-7--5-5--|--7-7--3-3-3--7-7--5-5-5---|
A|--0-0-0--3-3-3--3-3-3-3-3--5-5--3-3--5-5--3-3--|--5-5--3-3-3--5-5--3-3-3---|
E|---------1-1-1---------------------------------|-------1-1-1---------------|
                             PMPM PMPM PMPM PMPM

[Chorus]
e|-------------------------------------------|
b|-------------------------------------------|
G|--2-2-2-2--4-4-4-4--5-5-5-5-5-5-5-5--------|
D|--2-2-2-2--4-4-4-4--5-5-5-5-5-5-5-5--------| x2
A|--0-0-0-0--2-2-2-2--3-3-3-3-3-3-3-3--------|
E|-------------------------------------------|

e|-------------------------------|
b|-------------------------------|
G|--7-5-4-2----------------------|
D|--7-5-4-2----------------------|
A|--5-3-2-0----------------------|
E|-------------------------------|
    PMPMPM

[Outro]
e|-------------------------|
b|-------------------------|
G|--2--2-2-2-2-2-2-2-------|
D|--2--2-2-2-2-2-2-2--2-2--|
A|--0--0-0-0-0-0-0-0--2-2--|
E|--------------------0-0--|

e|-------------------------------------------------|
b|-------------------------------------------------|
G|--2-2-2-2-2-2-------4-4-4-4--5-5-5-5-5-----------|
D|--2-2-2-2-2-2--2-2--4-4-4-4--5-5-5-5-5-----------| x4
A|--0-0-0-0-0-0--2-2--2-2-2-2--3-3-3-3-3-----------|
E|---------------0-0-------------------------------|

e|-------------------------------|
b|-------------------------------|
G|--7-5-4-2----------------------|
D|--7-5-4-2----------------------|
A|--5-3-2-0----------------------|
E|-------------------------------|
    PMPMPM

2. ACTIONS SPEAK

[Intro]
e|---------------------------------------------------------------------------|
b|---------------------------------------------------------------------------|
G|--------------------------------------5-4----------------------------------|
D|--4-x-x-x--4-x-x-x--4--4--4--4-4-4-4--5-4--2-2-2-2--4--4-------------------|
A|--4-x-x-x--4-x-x-x--4--4--4--4-4-4-4--3-2--2-2-2-2--4--4-------------------|
E|--2-x-x-x--2-x-x-x--2--2--2--2-2-2-2-------0-0-0-0--2--2-------------------|

[Verse]
e|---------------------------------------------------------------------------|
b|---------------------------------------------------------------------------|
G|-----------5-4--7-7-7-7-7-7------------5-4---------------------------------|
D|--4-4-4-4--5-4--7-7-7-7-7-7---4-4-4-4--5-4--2-2-2-2-2-2--------------------| x2
A|--4-4-4-4--3-2--5-5-5-5-5-5---4-4-4-4--3-2--2-2-2-2-2-2--------------------|
E|--2-2-2-2---------------------2-2-2-2-------0-0-0-0-0-0--------------------|

[Bridge]
e|---------------------------------------------------------------------------|
b|---------------------------------------------------------------------------|
G|---------------------------------------------------------------------------|
D|--4-x-x-x--4-x-x-x--4-4-4-4-4-4-4------------------------------------------|
A|--4-x-x-x--4-x-x-x--4-4-4-4-4-4-4------------------------------------------|
E|--2-x-x-x--2-x-x-x--2-2-2-2-2-2-2------------------------------------------|

[Verse]
e|---------------------------------------------------------------------------|
b|---------------------------------------------------------------------------|
G|-----------5-4--7-7-7-7-7-7------------5-4---------------------------------|
D|--4-4-4-4--5-4--7-7-7-7-7-7---4-4-4-4--5-4--2-2-2-2-2-2--------------------| x2
A|--4-4-4-4--3-2--5-5-5-5-5-5---4-4-4-4--3-2--2-2-2-2-2-2--------------------|
E|--2-2-2-2---------------------2-2-2-2-------0-0-0-0-0-0--------------------|

[Bridge]
e|---------------------------------------------------------------------------|
b|---------------------------------------------------------------------------|
G|---------------------------------------------------------------------------|
D|--4-x-x-x--4-x-x-x--4-4-4-4-4-4-4------------------------------------------|
A|--4-x-x-x--4-x-x-x--4-4-4-4-4-4-4------------------------------------------|
E|--2-x-x-x--2-x-x-x--2-2-2-2-2-2-2------------------------------------------|

[Chorus]
e|--------------------------------|
b|--------------------------------|
G|-------5-4-7--------5-4---------|
D|--4-4--5-4-7---4-4--5-4-2-------|
A|--4-4--3-2-5---4-4--3-2-2-------|
E|--2-2----------2-2------0-------|

e|------------------------------------------|
b|------------------------------------------|
G|-------5-4-7--9-10-9--------5-4-----------|
D|--4-4--5-4-7-----------4-4--5-4--2-2-2-2--| x2
A|--4-4--3-2-5--7-8--7---4-4--3-2--2-2-2-2--|
E|--2-2------------------2-2-------0-0-0-0--|

[Outro]
e|---------------------------------------------------------------------------|
b|---------------------------------------------------------------------------|
G|---------------------------------------------------------------------------|
D|--4-x-x-x--4-x-x-x--4-4-4-4-4-4-4------------------------------------------|
A|--4-x-x-x--4-x-x-x--4-4-4-4-4-4-4------------------------------------------|
E|--2-x-x-x--2-x-x-x--2-2-2-2-2-2-2------------------------------------------|


3. THE PROOF

[Intro]
e|------------------------------------------------------------|
b|------------------------------------------------------------|
G|-----------------------5-5-5-5-5-5--9-9-9-9-9-9-9-9-9-------|
D|--7--7----7-7-7-7-7-7--5-5-5-5-5-5--------------------------| x2
A|--7--7----7-7-7-7-7-7--3-3-3-3-3-3--7-7-7-7-7-7-7-7-7-------|
E|--5--5----5-5-5-5-5-5---------------------------------------|

e|-------------------------|
b|-------------------------|
G|--7-7-7---------7-7-7-7--|
D|--7-7-7--7---7--7-7-7-7--|
A|--5-5-5--7---7--5-5-5-5--|
E|---------5---5-----------|

[Verse] x2
e|------------------------------------------------------------|
b|------------------------------------------------------------|
G|---------5-5-5--10-10-10--9-9-9--10-10-10--9-9-9--7-7-7-7---|
D|--7-7-7--5-5-5--10-10-10--9-9-9--10-10-10--9-9-9--7-7-7-7---|
A|--7-7-7--3-3-3--8--8--8---7-7-7--8--8--8---7-7-7--5-5-5-5---|
E|--5-5-5-----------------------------------------------------|
                                                    PMPMPMPM

e|-------------------------------------------------------------|
b|-------------------------------------------------------------|
G|---------5-5-5--10-10-10--9-9-9--10-10-10--9-9-9--7-7-7-7----|
D|--7-7-7--5-5-5--10-10-10--9-9-9--10-10-10--9-9-9--7-7-7-7----|  
A|--7-7-7--3-3-3--8--8--8---7-7-7--8--8--8---7-7-7--5-5-5-5----| 
E|--5-5-5------------------------------------------------------|
  
[Chorus] 
e|-------------------------------------------------------------|
b|-------------------------------------------------------------|
G|-----10-9---9-9-9-9-9-9--10-10-10-10--7-7-7-7-7--------------|
D|--2---------9-9-9-9-9-9---------------7-7-7-7-7--------------|
A|--2--8--7---7-7-7-7-7-7--8--8--8--8---5-5-5-5-5--------------|
E|--0----------------------------------------------------------|

[Verse] x2
e|------------------------------------------------------------|
b|------------------------------------------------------------|
G|---------5-5-5--10-10-10--9-9-9--10-10-10--9-9-9--7-7-7-7---|
D|--7-7-7--5-5-5--10-10-10--9-9-9--10-10-10--9-9-9--7-7-7-7---|
A|--7-7-7--3-3-3--8--8--8---7-7-7--8--8--8---7-7-7--5-5-5-5---|
E|--5-5-5-----------------------------------------------------|
                                                    PMPMPMPM

e|-------------------------------------------------------------|
b|-------------------------------------------------------------|
G|---------5-5-5--10-10-10--9-9-9--10-10-10--9-9-9--7-7-7-7----|
D|--7-7-7--5-5-5--10-10-10--9-9-9--10-10-10--9-9-9--7-7-7-7----|  
A|--7-7-7--3-3-3--8--8--8---7-7-7--8--8--8---7-7-7--5-5-5-5----| 
E|--5-5-5------------------------------------------------------|
 
[Chorus] 
e|-------------------------------------------------------------|
b|-------------------------------------------------------------|
G|-----10-9---9-9-9-9-9-9--10-10-10-10--7-7-7-7-7--------------|
D|--2---------9-9-9-9-9-9---------------7-7-7-7-7--------------|
A|--2--8--7---7-7-7-7-7-7--8--8--8--8---5-5-5-5-5--------------|
E|--0----------------------------------------------------------|

[Outro] 
e|---------------------------------------------------|
b|---------------------------------------------------|
G|-------------5-5-5-5-5--9-9-9-9-9--10-7-7-7--------|
D|--7-7-7-7-7--5-5-5-5-5--9-9-9-9-9--10-7-7-7--------| x4 (listen for palm muting variations)
A|--7-7-7-7-7--3-3-3-3-3--7-7-7-7-7--8--5-5-5--------|
E|--5-5-5-5-5----------------------------------------|

e|-----------------------|
b|-----------------------|
G|--10--7-7-7------------|
D|--10--7-7-7--7---------|
A|--8---5-5-5--7---------|
E|-------------5---------|


4. THE ONLY WAY

[Intro]
e|-----------|
B|-----------|
G|-2---3-----|
D|-2-3-3-2---| x3
A|-0-3-1-2---|
E|---1---0---|

e|-------------------------------|
B|-------------------------------|
G|-2---3-------------------------|
D|-2-3-3-2---2-2-2-2-2-2-2-2-2-2-| x4
A|-0-3-1-2---2-2-2-2-2-2-2-2-2-2-|
E|---1---0---0-0-0-0-0-0-0-0-0-0-|
             PMPMPMPMPMPMPMPMPMPM

e|--------------------------------|
B|--------------------------------|
G|-2-2--4-4--2-4------------------|
D|-2-2--4-4--2-4---2--------------|
A|-0-0--2-2--0-2---2--------------|
E|-----------------0-[**SCRAPE**]-|

[Verse]
e|---------------------------------------|
B|---------------------------------------|
G|-9--9-7-9--9-5--5-------9--9-7-9--9-10-|
D|-9--9-7-9--9-5--5-5--3--9--9-7-9--9-10-| x3
A|-7--7-5-7--7-3--3-5--3--7--7-5-7--7-8--|
E|------------------3--1-----------------|

[Chorus]
e|------------------------|
B|------------------------|
G|------------------3---3-|
D|-2--x-x-x-x-x-x---3-3-3-| x2
A|-2--x-x-x-x-x-x---1-3-1-|
E|-0--x-x-x-x-x-x-----1---|
  
[Verse]
e|---------------------------------------|
B|---------------------------------------|
G|-9--9-7-9--9-5--5-------9--9-7-9--9-10-|
D|-9--9-7-9--9-5--5-5--3--9--9-7-9--9-10-| x3
A|-7--7-5-7--7-3--3-5--3--7--7-5-7--7-8--|
E|------------------3--1-----------------|

[Chorus]
e|------------------------|
B|------------------------|
G|------------------3---3-|
D|-2--x-x-x-x-x-x---3-3-3-| x2
A|-2--x-x-x-x-x-x---1-3-1-|
E|-0--x-x-x-x-x-x-----1---|

[Outro]
e|-----------|
B|-----------|
G|-2---3-----|
D|-2-3-3-2---| 
A|-0-3-1-2---|
E|---1---0---|

e|-------------------------------|
B|-------------------------------|
G|-2---3-------------------------|
D|-2-3-3-2---2-2-2-2-2-2-2-2-2-2-| 
A|-0-3-1-2---2-2-2-2-2-2-2-2-2-2-|
E|---1---0---0-0-0-0-0-0-0-0-0-0-|
             PMPMPMPMPMPMPMPMPMPM

e|-----------|
B|-----------|
G|-2---3-----|
D|-2-3-3-2---| 
A|-0-3-1-2---|
E|---1---0---|

e|-------------------------------|
B|-------------------------------|
G|-2---3-------------------------|
D|-2-3-3-2---2-2-2-2-2-2-2-2-2-2-| x3 
A|-0-3-1-2---2-2-2-2-2-2-2-2-2-2-|
E|---1---0---0-0-0-0-0-0-0-0-0-0-|
             PMPMPMPMPMPMPMPMPMPM

e|-----------|
B|-----------|
G|-2---3-----|
D|-2-3-3-2---| 
A|-0-3-1-2---|
E|---1---0---|

e|-------------------------------|
B|-------------------------------|
G|-2---3-------------------------|
D|-2-3-3-2---2-2-2-2-2-2-2-2-2-2-| 
A|-0-3-1-2---2-2-2-2-2-2-2-2-2-2-|
E|---1---0---0-0-0-0-0-0-0-0-0-0-|
             PMPMPMPMPMPMPMPMPMPM

e|-----------|
B|-----------|
G|-2---3-----|
D|-2-3-3-2---| 
A|-0-3-1-2---|
E|---1---0---|

5. WHAT I SAY

[Intro]                 
e|-------------------------|
b|-------------------------|
G|-----------5-4-----------|
D|--3-3-3-3--5-4--7--7--7--|
A|--3-3-3-3--3-2--7--7--7--|
E|--1-1-1-1-------5--5--5--|

[Verse]
e|-------------------------------------------------|
b|-------------------------------------------------|
G|-----------5-4-----------------------------------|
D|--3-3-3-3--5-4--7-7-7-7-7-7-7--------------------| x2
A|--3-3-3-3--3-2--7-7-7-7-7-7-7--------------------|
E|--1-1-1-1-------5-5-5-5-5-5-5--------------------|

e|---------------------------------------------------------------------------|
b|---------------------------------------------------------------------------|
G|-----------5-4---------------------------5-4-------------------------------|
D|--3-3-3-3--5-4--7-7-7-7-7-7-7---3-3-3-3--5-4--7-7-7-7-7-7-7----------------|
A|--3-3-3-3--3-2--7-7-7-7-7-7-7---3-3-3-3--3-2--7-7-7-7-7-7-7----------------|
E|--1-1-1-1-------5-5-5-5-5-5-5---1-1-1-1-------5-5-5-5-5-5-5----------------|
    PMPMPMPM PMPM PMPMPMPMPMPMPM

[Chorus]
e|------------------|
b|------------------|
G|--5-4--2-2--------|
D|--5-4--2-2--------| x3
A|--3-2--0-0--------|
E|------------------|

e|----------------|
b|----------------|
G|---------7-7-7--|
D|--5-5-5--7-7-7--|
A|--5-5-5--5-5-5--|
E|--3-3-3---------| 

e|------------------|
b|------------------|
G|--5-4--2-2--------|
D|--5-4--2-2--------| x3
A|--3-2--0-0--------|
E|------------------|

e|----------------|
b|----------------|
G|---------7--7---|
D|--5-5-5--7--7---|
A|--5-5-5--5--5---|
E|--3-3-3---------|

[Verse]
e|-------------------------------------------------|
b|-------------------------------------------------|
G|-----------5-4-----------------------------------|
D|--3-3-3-3--5-4--7-7-7-7-7-7-7--------------------| x2
A|--3-3-3-3--3-2--7-7-7-7-7-7-7--------------------|
E|--1-1-1-1-------5-5-5-5-5-5-5--------------------|

e|---------------------------------------------------------------------------|
b|---------------------------------------------------------------------------|
G|-----------5-4---------------------------5-4-------------------------------|
D|--3-3-3-3--5-4--7-7-7-7-7-7-7---3-3-3-3--5-4--7-7-7-7-7-7-7----------------|
A|--3-3-3-3--3-2--7-7-7-7-7-7-7---3-3-3-3--3-2--7-7-7-7-7-7-7----------------|
E|--1-1-1-1-------5-5-5-5-5-5-5---1-1-1-1-------5-5-5-5-5-5-5----------------|
    PMPMPMPM PMPM PMPMPMPMPMPMPM

[Chorus]
e|------------------|
b|------------------|
G|--5-4--2-2--------|
D|--5-4--2-2--------| x3
A|--3-2--0-0--------|
E|------------------|

e|----------------|
b|----------------|
G|---------7-7-7--|
D|--5-5-5--7-7-7--|
A|--5-5-5--5-5-5--|
E|--3-3-3---------| 

e|------------------|
b|------------------|
G|--5-4--2-2--------|
D|--5-4--2-2--------| x3
A|--3-2--0-0--------|
E|------------------|

e|----------------|
b|----------------|
G|---------7--7---|
D|--5-5-5--7--7---|
A|--5-5-5--5--5---|
E|--3-3-3---------|

[Outro]
e|-----------------------------------------------------------|
B|-----------------------------------------------------------|
G|-------------5-5-5-5-5-5-----------------------------------|
D|--7-7-7-7-7--5-5-5-5-5-5--5-5-5-5-5--3-3-3-3--5-5----------| x2
A|--7-7-7-7-7--3-3-3-3-3-3--5-5-5-5-5--3-3-3-3--5-5----------|
E|--5-5-5-5-5---------------3-3-3-3-3--1-1-1-1--3-3----------|
    PMPMPMPMPM PMPMPMPMPMPM PMPMPMPMPM PMPMPMPM PMPM 

e|-----------------------------------------------------------|
B|-----------------------------------------------------------|
G|-------------5-5-5-5-5-5-----------------------------------|
D|--7-7-7-7-7--5-5-5-5-5-5--5-5-5-5-5--3-3-3-3--5-5----------| x2
A|--7-7-7-7-7--3-3-3-3-3-3--5-5-5-5-5--3-3-3-3--5-5----------|
E|--5-5-5-5-5---------------3-3-3-3-3--1-1-1-1--3-3----------|

e|-----------------------------------------------------------|
B|-----------------------------------------------------------|
G|-------------5-5-5-5-5-5-----------------------------------|
D|--7-7-7-7-7--5-5-5-5-5-5--5-5-5-5-5--3-3-3-3--5-5----------| x2
A|--7-7-7-7-7--3-3-3-3-3-3--5-5-5-5-5--3-3-3-3--5-5----------|
E|--5-5-5-5-5---------------3-3-3-3-3--1-1-1-1--3-3----------|

e|--------------|
B|--------------|
G|--------------|
D|-7--7---------|
A|-7--7---------|
E|-5--5---------|

6. DON'T COME BACK

[Intro]                         
e|------------------------------------|
b|------------------------------------|
G|---------5-5-5--7-7-7--3-3-3--------|
D|--7-7-7--5-5-5--7-7-7--3-3-3--------| x2
A|--7-7-7--3-3-3--5-5-5--1-1-1--------|
E|--5-5-5-----------------------------|

[Verse]
e|------------------------------------|
b|------------------------------------|
G|---------5-5-5--7-7-7--3-3-3--------|
D|--7-7-7--5-5-5--7-7-7--3-3-3--------| x2
A|--7-7-7--3-3-3--5-5-5--1-1-1--------|
E|--5-5-5-----------------------------|

[Chorus]
e|--------------------------------------------------------|
b|--------------------------------------------------------|
G|--4-4-4-4--11-11-11-11---------5-5-5--7-7-7--3-3--------|
D|--4-4-4-4---------------7-7-7--5-5-5--7-7-7--3-3--------| x2
A|--2-2-2-2--9--9--9--9---7-7-7--3-3-3--5-5-5--1-1--------|
E|------------------------5-5-5---------------------------|

e|---------------|
b|---------------|
G|------5--------|
D|--3---5---5----|
A|--3---3---5----|
E|--1-------3----|

[Verse]
e|------------------------------------|
b|------------------------------------|
G|---------5-5-5--7-7-7--3-3-3--------|
D|--7-7-7--5-5-5--7-7-7--3-3-3--------| x2
A|--7-7-7--3-3-3--5-5-5--1-1-1--------|
E|--5-5-5-----------------------------|

[Chorus]
e|--------------------------------------------------------|
b|--------------------------------------------------------|
G|--4-4-4-4--11-11-11-11---------5-5-5--7-7-7--3-3--------|
D|--4-4-4-4---------------7-7-7--5-5-5--7-7-7--3-3--------| x2
A|--2-2-2-2--9--9--9--9---7-7-7--3-3-3--5-5-5--1-1--------|
E|------------------------5-5-5---------------------------|

e|---------------|
b|---------------|
G|------5--------|
D|--3---5---5----|
A|--3---3---5----|
E|--1-------3----|

[Outro]
e|----------------|
b|----------------|
G|-2-----------3--|
D|-2------3----3--| x2
A|-0------3----1--|
E|--------1-------|

e|-----------------------------------------------|
b|-----------------------------------------------|
G|--2-2-2-2-2-2---------------3-3-3-3-3-3--------|
D|--2-2-2-2-2-2--3-3-3-3-3-3--3-3-3-3-3-3--------| x4 (Palm Mute last two times)
A|--0-0-0-0-0-0--3-3-3-3-3-3--1-1-1-1-1-1--------|
E|---------------1-1-1-1-1-1---------------------|

e|-----------|
b|-----------|
G|-----------|
D|--7--------|
A|--7--------|
E|--5--------|

7. NO PLACE

[Verse]                     
e|---------------------------------|
b|---------------------------------|
G|--4-4-4-------7-7-7-7-7-7--------|
D|--4-4-4--5-4--7-7-7-7-7-7--------| x4
A|--2-2-2--5-4--5-5-5-5-5-5--------|
E|---------3-2---------------------|

[Chorus]
e|---------------------------------------------|
b|---------------------------------------------|
G|--10-10-10-10--9-9-9-9--5-5-5-5--4-4--5-5----|
D|--10-10-10-10--9-9-9-9-----------4-4--5-5----| x2
A|--8--8--8--8---7-7-7-7--3-3-3-3--2-2--3-3----|
E|---------------------------------------------|

[Verse]                                
e|---------------------------------|
b|---------------------------------|
G|--4-4-4-------7-7-7-7-7-7--------|
D|--4-4-4--5-4--7-7-7-7-7-7--------| x4
A|--2-2-2--5-4--5-5-5-5-5-5--------|
E|---------3-2---------------------|

[Chorus]
e|---------------------------------------------|
b|---------------------------------------------|
G|--10-10-10-10--9-9-9-9--5-5-5-5--4-4--5-5----|
D|--10-10-10-10--9-9-9-9-----------4-4--5-5----| x2
A|--8--8--8--8---7-7-7-7--3-3-3-3--2-2--3-3----|
E|---------------------------------------------|

[Outro]
e|------------------------------|
b|------------------------------|
G|--4--------7-7-7-7-7-7--------|
D|--4---5-4--7-7-7-7-7-7--------| x6
A|--2---5-4--5-5-5-5-5-5--------|
E|------3-2---------------------|
             PMPMPMPMPMPM

e|------|
b|------|
G|--4---|
D|--4---| 
A|--2---|
E|------|

***********************************

| x   Dead note
| PM  Palm muting

***********************************

            
            
Suggest correction
Creating personal tab
Creating personal tab
You can edit any tab online and save it as your Personal.

You can edit, replace or remove any tab part or add personal notes – all changes will be seen only by you.

Personal tabs can be accessed anytime from any device, even offline.
Learn more »
Give kudos to tab author, rate the tab!
1 2 3 4 5
comments
print report bad tab
guest
You may want to rate the tab now too:
select rating
Wanna post a correction for this tab? Suggest correction