Oops, an error
Loading. Please wait.

Over The Hill tab

317 views 1 this week
no commentswrite comment
1 2 3 4 5
3 more votes to show rating
add to favorites
×
Save as Personal and add changes to this tab that will be seen only by you. Learn more ›
×
You can save this tab as Personal to edit and correct it or add notes. All changes will be seen only by you. Learn more »
launch autoscroll
font size
0
reset
how to read this tab
guitar tuner
edit
Autoscroll
slow
fast
+/-
esc
set tempo
stop
Author
-------------------------------------------------------------------------------
                            Over The Hill - Ten Years After from the Album "A Space in Time"
-------------------------------------------------------------------------------
Tabbed by: BlueRunMan

Great song by the great Alvin Lee - RIP

Down pick the first part of each little chord pattern in intro/verse then up pick the 2nd part.

Tuning:Standard

intro/verse
       E         A          D           G          C               Am
e|-------0----------0----------2----------3------------------------------------------|
B|--------0-----------2------3---3----------3----------1------------1----------------|
G|-----1---0-------2---0----2-----2----------0--------0-0---------2---2--------------|
D|----2-----0-----2--------0-----------0-------------2---2-------2-----2-------------|
A|---2-----------0--------------------2-------------3-----3--2--0-------------0-2----|
E|--0--------------------------------3-------------------------------------/4-----0--| play E pattern once more
                                                                                       then repeat entire part 
    

bridge
     G   G#  A   B   C   G     A#  B   C   D   D#  D
e|--------------------------|-------------------------------------|
B|---------------4---5------|---3---4---5---7---8---7-------------|
G|---4---5---6---4---5---4--|---3---4---5---7---8---7-------------|
D|---5---6---7---4---5---5--|---3---4---5---7---8---7-------------|
A|---5---6---7---2---3---5--|---1---2---3---5---6---5-------------|
E|---3---4---5-----------3--|-------------------------------------|
    x8   x1  x8  x1  x8  x8     x8  x1  x8  x1  x8  x8

Best to listen to the song to get the strumming pattern down.

That's basically it aside from the orchestral parts and what not. 

Thanks and enjoy!


************************************

| /   slide up
| \   slide down
| h   hammer-on
| p   pull-off
| ~   vibrato
| +   harmonic
| x   Mute note
| b   Bend
| pb  Pre-bend
| br  Bend release
| pbr Pre-bend release
| brb Bend release bend

************************************
Suggest correction
Creating personal tab
Creating personal tab
You can edit any tab online and save it as your Personal.

You can edit, replace or remove any tab part or add personal notes – all changes will be seen only by you.

Personal tabs can be accessed anytime from any device, even offline.
Learn more »
Give kudos to tab author, rate the tab!
1 2 3 4 5
comments
print report bad tab
guest
You may want to rate the tab now too:
select rating
Wanna post a correction for this tab? Suggest correction