Oops, an error
Loading. Please wait.

Baby Chords

version 2
version 2

Whole song

Interactive

11,051 views 15 this week
2 commentsread comments
1 2 3 4 5
x 4
add to favorites
launch autoscroll
font size
0
reset
transpose
0
reset
simplify chords
display chords
guitar tuner
Autoscroll
slow
fast
+/-
esc
set tempo
stop
Help us to improve Ultimate-Guitar.com Take our survey!
×
Author
...BABY... by Tenacious D
----------...............

*from 'The Pick of Destiny' (2006)*


Intro:

    E             A/E           B/E           A/E
e|-------------|-------------|-------------|-------------|
B|-------------|-------------|-------------|-------------|
G|------1---1--|------2---2--|------4---4--|------2---2--|
D|-------------|-------------|-------------|-------------|
A|----2---2----|----4---4----|----6---6----|----4---4----|
E|--0----------|--0----------|--0----------|--0----------| (x2)

Verse 1: (with Intro Riff)

  E     A/E    B/E           A/E
I cant, get to sleep tonight,
   E      A/E        B/E  A/E
No matter how hard I try.

Chorus 1:

          C#m            B             C#m       B
'Cos it's cold, and it's dark, and the wind is a-whistlin',
      A                         B7
And I can't seem to put out the light.

Verse 2: (with Intro Riff)

E             A/E           B/E  A/E
 Mamma's been searching for baby,
    E           A/E           B/E  A/E
But baby's been tryin' to get home.

Chorus 2:

          C#m            B
'Cos it's cold, and it's dark,
        C#m         B             A  Asus2
And the moon cannot light the way.
            B7
And Daddy's gone... I'm just a baby!

Outro:

    E             A/E           B/E           A/E* B/E*  E*
e|-------------|-------------|-------------|----------|------|
B|-------------|-------------|-------------|----------|------|
G|------1---1--|------2---2--|------4---4--|--6----8--|--9---|
D|-------------|-------------|-------------|--x----x--|--x---|
A|----2---2----|----4---4----|----6---6----|--7----9--|--11--|
E|--0----------|--0----------|--0----------|--0----0--|--0---|


CHORD DIAGRAMS:
---------------

   E       A/E     B/E     C#m     B       A

 EADGBE  EADGBE  EADGBE  EADGBE  EADGBE  EADGBE
 022100  04x2xx  06x4xx  x46654  x24442  x02220

   B7     Asus2   A/E*    B/E*     E*

 EADGBE  EADGBE  EADGBE  EADGBE  EADGBE
 x21202  x02200  07x6xx  09x8xx  011x9x


Tabbed by Joel from cLuMsY, Bristol, England, 2006 (clumsyband@hotmail.com)
Suggest correction
comments
print report bad tab
2 comments total.
0 reply
qa65hguitarguy 43 Jul 31, 2009 11:39 AM

dude this tab is horrible stop tabbing please

0 reply
darksax 10 Jul 03, 2014 03:42 PM

damn, dude, this is definitely one of the most accurate tabs i've ever seen.

it's not for play it like chords, you have to do it like KG does it in the original song, "arpéger"

guest
You may want to rate the tab now too:
select rating
Wanna post a correction for this tab? Suggest correction