Oops, an error
Loading. Please wait.

Baby Tab

version 3
version 3

Whole song

Interactive

3,110 views 1 this week
1 commentread comment
1 2 3 4 5
x 3
add to favorites
launch autoscroll
font size
0
reset
how to read this tab
guitar tuner
Autoscroll
slow
fast
+/-
esc
set tempo
stop
Help us to improve Ultimate-Guitar.com Take our survey!
×
Author
Difficulty
novice
-------------------------------------------------------------------------------
                             Baby - Tenacious D
-------------------------------------------------------------------------------
Tabbed by:chigdig
Email:ali1_28

Tuning:standard (EADGBe)

  Intro and 1st line: PLAY 3 TIMES
e|---------------------------------------------------------------------------|
B|---------------------------------------------------------------------------|
G|---------1-----1-----------2-----2-----------4-----4-----------2-----2-----|
D|------------2-----2-----------2-----2-----------4-----4-----------2-----2--|
A|------2-----------------0-----------------2-----------------0--------------|
E|---0-----------------0-----------------0-----------------0-----------------|
    E                  A                 B/E               A
   I can't           get            to sleep
e|---------------------------------------------------------------------------|
B|---------------------------------------------------------------------------|
G|---------1-----1-----------2-----2-----------4-----4-----6-----------------|
D|------------2-----2-----------2-----2-----------4-----4--6-----------------|
A|------2-----------------0-----------------2--------------4-----------------|
E|---0-----------------0-----------------0-----------------------------------|
    E                  A                B/E               C#m
 matter          how hard           I try

   FIRST LINE OF CHORUS
e|---------------------------------------------------------------------------|
B|------------5-----------4--------4-----5--------5--------4--------4--------|
G|---------6-----6-----------4--------------6--------6--------4--------4-----|
D|------6-----------6-----------4--------------6-----------------4-----------|
A|---4-----------------2--------------4-----------------2--------------------|
E|---------------------------------------------------------------------------|
    C#m               B              C#m                B
  cold           its dark          wind           whistlin'
                                   moon              light
e|---------------0-----------------------------------------------------------|
B|------2-----------2---------------------------4----------------------------|
G|---------2-----------2-----2-----------------------------------------------|
D|------------2-----------------2----------4---------------------------------|
A|---0--------------------0--------0----2------------------------------------|
E|---------------------------------------------------------------------------|
    A                                  B
   can't               put out        light


e|---------------------------------------------------------------------------|
B|---------------------------------------------------------------------------|
G|---------1-----1-----------2-----2-----------4-----4-----------2-----2-----|
D|------------2-----2-----------2-----2-----------4-----4-----------2-----2--|
A|------2-----------------0-----------------2-----------------0--------------|
E|---0-----------------0-----------------0-----------------0-----------------|
     E                 A                 B/E               A
    Mama             searching           baby

e|---------------------------------------------------------------------------|
B|---------------------------------------------------------------------------|
G|---------1-----1-----------2-----2-----------4-----4-----6-----------------|
D|------------2-----2-----------2-----2-----------4-----4--6-----------------|
A|------2-----------------0-----------------2--------------4-----------------|
E|---0-----------------0-----------------0-----------------------------------|
    E                  A                 B/E               C#m
  But baby           trying             home
                                               REPEAT FIRST LINE OF CHORUS
                                               THEN GO TO CODA

    CODA
e|---------------------------------------------------------------------------------|
B|------------2--------------------------------7-----------------------------------|
G|------2--------2--2----------------------8---------------------------------------|
D|---------2--------2------------------9-------------------------------------------|
A|---0--------------0--------------9-----------------------------------------------|
E|------------------0----------7---------------------------------------------------|
    A                          B                   I'm just a baby
                      daddy's gone

e|---------------------------------------------------------------------------|
B|-------------------------------------------------------2----4--------------|
G|---------1-----1--2--------2-----2-----------4-----4---2----4----1---------|
D|------------2-----------------2-----------------4------2----4----2---------|
A|------2-----------------0-----------0-----2------------0----2----2---------|
E|---0-----------------0-----------------0-------------------------0---------|


| /  slide up
| \  slide down
| h  hammer-on
| p  pull-off
| ~  vibrato
| +  harmonic
| x  Mute note
===============================================================================
Suggest correction
Give kudos to tab author, rate the tab!
1 2 3 4 5
comments
print report bad tab
1 comment total.
0 reply
JG the great 10 Mar 25, 2008 03:01 PM

hey chigdig, have you ever even heard this song before? this tab sucks!

guest
You may want to rate the tab now too:
select rating
Wanna post a correction for this tab? Suggest correction