Oops, an error
Loading. Please wait.

Classico Tab

version 1
version 1
438,175 views 99 this week
16 commentsread comments
1 2 3 4 5
accurate
x 38
add to favorites
launch autoscroll
font size
0
reset
how to read this tab
guitar tuner
Autoscroll
slow
fast
+/-
esc
set tempo
stop
Help us to improve Ultimate-Guitar.com Take our survey!
×
Author
e|E||---0-2-3---2-0-----0-2---------------------------------------------|
B||---------------4-------0---2-4-5---3-1-0----------------0----------|
G||-------------------------------------------2-0------0-2---2-0------|
D||------------------------------------------------4-------------4-2--|
A||-------------------------------------------------------------------|
E||-------------------------------------------------------------------|x2

e|E||------0---|--0---0-------|--------------|--------------|----------0---|
B||--------4-|----4---0-3-1-|--------------|--0---------0-|--1---------4-|
G||----------|--------------|--2---2-----2-|------1---1---|------2-------|
D||----------|--------------|----2-----2---|----2---2-----|----2---2-----|
A||----------|--------------|--0-----3-----|--------------|--0-----------|
E||----------|--------------|--------------|--0-----------|--------------|

e|--0---0-------|--------------|--------------|---------0---|--0---0-------|
B|----4---0-3-1-|--------------|--0-------1-0-|-----------4-|----4---0-3-1-|
G|--------------|--2---2-----2-|------1-------|--2---2------|--------------|
D|--------------|----2-----2---|----2---2-----|----2--------|--------------|
A|--------------|--0-----3-----|--------------|--0----------|--------------|
E|--------------|--------------|--0-----------|-------------|--------------|

e|--------------|--------------|----------0---|--0---0-------|--------------|
B|--------------|--0---------0-|--1---------4-|----4---0-3-1-|--------------|
G|--2---2-----2-|------1---1---|------2-------|--------------|--2---2-----2-|
D|----2-----2---|----2---2-----|----2---2-----|--------------|----2-----2---|
A|--0-----3-----|--------------|--0-----------|--------------|--0-----3-----|
E|--------------|--0-----------|--------------|--------------|--------------|

e|--------------|--------------|--0-------1-0-|----------0---|--------------|
B|--0-------1-0-|--------0-1-3-|------1-------|--3---0-----3-|--1-------3-1-|
G|------1-------|--2---2-------|--------0-----|----0---------|------2-------|
D|----2---0-----|----2---------|----2---------|--------3-----|----2---2-----|
A|--------------|--0-----------|--3-----------|--------------|--0-----------|
E|--0-----------|--------------|--------------|--3-----------|--------------|

e|------0---0---|--0---12---0---|--0---0---0---|--0---0-------|--------------|
B|--0-----------|---------4---4-|----4---4---4-|----4---0-3-1-|--------------|
G|--------------|----9----------|--------------|--------------|--2---2-----2-|
D|----2---2---2-|---------------|--------------|--------------|----2-----2---|
A|--------------|---------------|--------------|--------------|--0-----3-----|
E|--0-----------|---------------|--------------|--------------|--------------|

e|--------------|----------0---|--0---0-------|--------------|--------------|
B|--0---------0-|--1---------4-|----4---0-3-1-|--------------|--0-------1-0-|
G|------1---1---|------2-------|--------------|--2---2-----2-|------1-------|
D|----2---2-----|----2---2-----|--------------|----2-----2---|----2---0-----|
A|--------------|--0-----------|--------------|--0-----3-----|--------------|
E|--0-----------|--------------|--------------|--------------|--0-----------|

e|--------------|--0-------1-0-|----------0---|--------------|------0---0---|
B|--------0-1-3-|------1-------|--3---0-----3-|--1-------3-1-|--0-----------|
G|--2---2-------|--------0-----|----0---------|------2-------|--------------|
D|----2---------|----2---------|--------3-----|----2---2-----|----2---2---2-|
A|--0-----------|--3-----------|--------------|--0-----------|--------------|
E|--------------|--------------|--3-----------|--------------|--0-----------|

e|--0---12---0---|--0---0---0---|--0---0-------|--------------|--------------|
B|---------4---4-|----4---4---4-|----4---0-3-1-|--------------|--0---------0-|
G|---------------|--------------|--------------|--2---2-----2-|------1---1---|
D|---------------|--------------|--------------|----2-----2---|----2---2-----|
A|---------------|--------------|--------------|--0-----3-----|--------------|
E|----0----------|--------------|--------------|--------------|--0-----------|

e|----------0---|--0---0-------|--------------|--------------|--------------|
B|--1---------4-|----4---0-3-1-|--------------|--0-------1-0-|--------1-1-1-|
G|------2-------|--------------|--2---2-----2-|------1-------|--2---2-----3-|
D|----2---2-----|--------------|----2-----2---|----2---0-----|----2---2-3-2-|
A|--0-----------|--------------|--0-----3-----|--------------|--0-----1-0---|
E|--------------|--------------|--------------|--0-----------|------------3-|

e|----------1---0-|----------6---5-|--5/3-1-0-----|------------------|
B|--1-------1-----|--5---3---3-----|----------3-1-|------------------|
G|--2-2---2---2---|----3---3---3---|--------------|--3---2---2-0-2-3-|
D|------3---------|--3-------------|--3/2-0-2-3-2-|--3---------------|
A|----------------|----------------|--------------|----3-3h0---------|
E|--1-------------|----------------|--------------|------------------|

e|--------------|--0-----0-1---|----------------|----3---3---3---3---3---3-|
B|--1-------3-4-|------1-------|--1-------3---0-|--1-----------0---1---3---|
G|--2-2---2-----|----2---2---2-|----------------|------0---2---------------|
D|--3---3-------|--2-------0-3-|----2---3---3---|--------------3---2---0---|
A|--------------|--------------|----------------|--3-----------------------|
E|--------------|--------------|--3---3---3-----|--------------------------|

e|--0-3-8h7-5h3-1-0---3-1---|----3---3---3---3---3---3-|
B|------------------3-----3-|--1-----------0---1---3---|
G|------------------0-------|------0---2---------------|
D|----------3---------------|--------------3---2---0---|
A|--3/--7-------------------|--3-----------------------|
E|--------------------------|--------------------------|

e|--0-3-8h7-5h3-1-0---3-1---|--0-1-0---0---0---0---0---|--0-----0---|--0-----0---|
B|------------------3-----3-|--------4---0---4---0---4-|------0---4-|------0---4-|
G|------------------0-------|--1-----------------------|------------|------------|
D|----------3---------------|--------------------------|------------|------------|
A|--3/--7-------------------|--------------------------|------------|------------|
E|--------------------------|--------------------------|------------|------------|

e|--0---0---0---|--0---0-------|--------------|--------------|----------0---|
B|----4---4---4-|----4---0-3-1-|--------------|--0---------0-|--1---------4-|
G|--------------|--------------|--2---2-----2-|------1---1---|------2-------|
D|--------------|--------------|----2-----2---|----2---2-----|----2---2-----|
A|--------------|--------------|--0-----3-----|--------------|--0-----------|
E|--------------|--------------|--------------|--0-----------|--------------|

e|--0---0-------|--------------|--------------|--------------|--0-------1-0-|
B|----4---0-3-1-|--------------|--0-------1-0-|--------0-1-3-|------1-------|
G|--------------|--2---2-----2-|------1-------|--2---2-------|--------0-----|
D|--------------|----2-----2---|----2---0-----|----2---------|----2---------|
A|--------------|--0-----3-----|--------------|--0-----------|--3-----------|
E|--------------|--------------|--0-----------|--------------|--------------|

e|----------0---|--------------|------0---0---|--0---12---0---|--0---0---0---|
B|--3---0-----3-|--1-------3-1-|--0-----------|---------4---4-|----4---4---4-|
G|----0---------|------2-------|--------------|---------------|--------------|
D|--------3-----|----2---2-----|----2---2---2-|---------------|--------------|
A|--------------|--0-----------|--------------|---------------|--------------|
E|--3-----------|--------------|--0-----------|----0----------|--------------|

e|--0---0-------|--------------|--------------|----------0---|--0---0-------|
B|----4---0-3-1-|--------------|--0---------0-|--1---------4-|----4---0-3-1-|
G|--------------|--2---2-----2-|------1---1---|------2-------|--------------|
D|--------------|----2-----2---|----2---2-----|----2---2-----|--------------|
A|--------------|--0-----3-----|--------------|--0-----------|--------------|
E|--------------|--------------|--0-----------|--------------|--------------|

e|--------------|--------------|--------------|--------------|----------0-1-|
B|--------------|--0-------1-0-|--------------|--2-----------|--3-------2-3-|
G|--2---2-----2-|------1-------|--2-----------|--3-----------|--2-----------|
D|----2-----2---|----2---0-----|--------------|--5-----------|--3-----------|
A|--0-----3-----|--------------|--0-0-0-0-0-0-|--0-0-0-0-0-0-|--0-0-0-0-0-0-|
E|--------------|--0-----------|--------------|--------------|--------------|

e|--1-------1---|--0-----------|-----------|----------|--------------|
B|--3-------3---|--1-----------|--3----1-0-|----------|------1---0---|
G|--1-------1---|--2-----------|-----------|--2----2--|--2-------1---|
D|--------------|--------------|--3----2-0-|--4-------|------2-------|
A|--0-0-0-0-0-0-|--0-0-0-0-0-0-|--0--------|--3----3--|--3-----------|
E|--------------|--------------|-----------|--5-------|--0-0-0-0-0-0-|

e|--------------|--------------|----------0-1-|--1-------1---|--1-----------|
B|--------------|--2-----------|--3-------2-3-|--3-------3---|--3-----------|
G|--2-----------|--3-----------|--2-----------|--------------|--------------|
D|--------------|--5-----------|--3-----------|--------------|--------------|
A|--3h0-0-0-0-0-|--0-0-0-0-0-0-|--0-0-0-0-0-0-|--0-0-0-0-0-0-|--1-1-1-1-1-1-|
E|--------------|--------------|--------------|--------------|--------------|

e|--------------|--------------|--------------|---------|---------|
B|--4-------3-1-|--------------|--------------|---------|--0------|
G|--0-----------|--3-------2---|--1-------1---|--2------|--1------|
D|----------3---|--0-------3---|--3-------3---|--2------|--2------|
A|--1-1-1-1-1-1-|--1-1-1-1-1-1-|--2-2-2-2-2-2-|--3------|---------|
E|--------------|--------------|--------------|---------|--0------|

e|------------0-------|------0----8-12-10h8----|------0----8-12-10h8----|
B|----------1---3h1-0-|----1---10-----------12-|----1---10-----------12-|
G|--------2-----------|--2---------------------|--2---------------------|
D|------2-------------|------------------------|------------------------|
A|--0h3---------0-----|--0-------------0-------|--0-------------0-------|
E|--------------------|------------------------|------------------------|

e|------------------------|--------------------|------0-------|--------------|
B|--11-10-9-8-----------3-|--2-1-0-------------|----4---0-3-1-|--------------|
G|------------11-10-9-8---|--------3-2-1-0-----|--------------|--2---2-----2-|
D|------------------------|----------------4-3-|--2-----------|----2-----2---|
A|--0---------------------|--------------------|--------------|--0-----3-----|
E|------------------------|--------------------|--------------|--------------|

e|--------------|----------0---|--0---0-------|--------------|--------------|
B|--0---------0-|--1---------4-|----4---0-3-1-|--------------|--0-------1-0-|
G|------1---1---|------2-------|--------------|--2---2-----2-|------1-------|
D|----2---2-----|----2---2-----|--------------|----2-----2---|----2---0-----|
A|--------------|--0-----------|--------------|--0-----3-----|--------------|
E|--0-----------|--------------|--------------|--------------|--0-----------|

e|--------------|--0-------1-0-|----------0---|--------------|------0---0---|
B|--------0-1-3-|------1-------|--3---0-----3-|--1-------3-1-|--0-----------|
G|--2---2-------|--------0-----|----0---------|------2-------|--------------|
D|----2---------|----2---------|--------3-----|----2---2-----|----2---2---2-|
A|--0-----------|--3-----------|--------------|--0-----------|--------------|
E|--------------|--------------|--3-----------|--------------|--0-----------|

e|--0---12---0---|--0---0---0---|--0---0-------|--------------|--------------|
B|---------4---4-|----4---4---4-|----4---0-3-1-|--------------|--0---------0-|
G|----9----------|--------------|--------------|--2---2-----2-|------1---1---|
D|---------------|--------------|--------------|----2-----2---|----2---2-----|
A|---------------|--------------|--------------|--0-----3-----|--------------|
E|---------------|--------------|--------------|--------------|--0-----------|

e|----------0---|--0---0-------|--------------|--------------|---------||
B|--1---------4-|----4---0-3-1-|--------------|--0-------1-0-|---------||
G|------2-------|--------------|--2---2-----2-|------1-------|--2------||
D|----2---2-----|--------------|----2-----2---|----2---0-----|---------||
A|--0-----------|--------------|--0-----3-----|--------------|--0------||
E|--------------|--------------|--------------|--0-----------|---------||

Yes, I Didn't do this myself. I got theseparts from Bach and Beethoven so it easier to find.



************************************

| h  Hammer-on
| /  Slide up

************************************
Suggest correction
What's this?
You can suggest a correction to this tab. Community and Mods will review your correction and vote to approve or reject it.
comments
print report bad tab
16 comments total. Showing first comments.
0 reply
krymson 1,334 wrote on November 28 2006, 09:01 pm

Everything he plays on the high E is also played on the Low E at the same time.

+1 reply
Fallen186 401 wrote on November 28 2006, 09:50 pm

He doesn't play all of fur elise. You put more of fur elise than he plays.

0 reply
drummerlad 165 wrote on November 29 2006, 11:22 am

sweet tab dude.cheers!

guest
You may want to rate the tab now too:
select rating
Please do not post tabs as comments. Select "correction" instead!