Oops, an error
Loading. Please wait.

Destiny Tab

version 1
version 1

Intro

Whole song

Interactive

6,568 views 1 this week
1 commentread comment
1 2 3 4 5
1 last vote to show rating
add to favorites
launch autoscroll
font size
0
reset
how to read this tab
guitar tuner
Autoscroll
slow
fast
+/-
esc
set tempo
stop
Help us to improve Ultimate-Guitar.com Take our survey!
×
Author
Difficulty
novice
a simple arpeggio switching between A minor and A sus 2

----------------------------------------|
------1-0-----0-1-----1-0-----0h1p0-----|
------------------------------------2---|
----2-------2-------2-------2-----------|
--0-------0-------0-------0-------------|
----------------------------------------|
Suggest correction
Give kudos to tab author, rate the tab!
1 2 3 4 5
comments
print report bad tab
1 comment total.
0 reply
Invisus 81 May 05, 2007 02:51 PM

close but it goes like this -
-----------------------------------------------|
-0h1p0-------1-0-----0-1-----1-0-----0h1p0-----|
-------0-----------------------------------0---|
-----------2-------2-------2-------2-----------|
---------0-------0-------0-------0-------------|
-----------------------------------------------|

guest
You may want to rate the tab now too:
select rating
Wanna post a correction for this tab? Suggest correction