Oops, an error
Loading. Please wait.

Destiny Tab

version 1
version 1

Whole song

Interactive

9,359 views 6 this week
3 commentsread comments
1 2 3 4 5
x 3
add to favorites
launch autoscroll
font size
0
reset
how to read this tab
guitar tuner
×
Best way to learn
"Destiny"
Autoscroll
slow
fast
+/-
esc
set tempo
stop
Author
Difficulty
  follow
novice
Tabbed By : John W
This is my first tab. I was just wondering how to play the main part of the song, and 
is what I figured out. Sorry that I dont have the bit at the start. I thought people might 
this anyway.

Tuning - standard


e|----------------------------------------------------------------|
B|----------------------------------------------------------------|
G|----------------------------------------------------------------|
D|----7-----------7------------7-----------7----------12--12-/-7--|
A|----7-----------7------------7-----------7----------12--12-/-7--|
E|----5--0-0-0----5---0-0-0----5--0-0-0----5--0-0-0---10--10-/-5--|
         . . .        . . .       . . .       . . .
Major palm muting, maybe play the open a and d as well but i prefer just the E.
Suggest correction
Give kudos to tab author, rate the tab!
1 2 3 4 5
comments
print report bad tab
3 comments total.
0 reply
John W 72 Nov 30, 2006 06:22 AM

Another way, probably easier for beginners.
Just uses the "open" power chords. Sounds a little different but still same notes.
e|----------|----|-----------------|
B|----------|----|------3-3--------|
G|--2-------|----|------2-2--2-----|
D|--2-------|(x4)|------0-0--2-----|
A|--0-------|----|-----------0-----|
E|----0-0-0-|----|-0-0-0-----------|

0 reply
chili157 10 Jun 11, 2007 07:23 PM

well number one u don't have the entire thing and also that sounds nothing like the song, but its yor first song so just keep practicing ok! lol

0 reply
chili157 10 Jun 11, 2007 07:23 PM

well number one u don't have the entire thing and also that sounds nothing like the song, but its your first tab so just keep practicing ok! lol

guest
You may want to rate the tab now too:
select rating
Wanna post a correction for this tab? Suggest correction