Oops, an error
Loading. Please wait.

Destiny Tab

version 2
version 2

Whole song

Interactive

14,046 views 3 this week
4 commentsread comments
1 2 3 4 5
x 8
add to favorites
launch autoscroll
font size
0
reset
how to read this tab
guitar tuner
Autoscroll
slow
fast
+/-
esc
set tempo
stop
Help us to improve Ultimate-Guitar.com Take our survey!
×
Author
Difficulty
novice
This is my first tab, so here goes.

Standard tuning.

E|--------------------------------------------------------------------------|
B|------------------------1--0-------------1--------------------------1--0--|
G|--------4h5p4p0---------2--2-----2---0--------2---4h5p4p0------2----2--2--|
D|---------------------2-----------2---2-------------------------2----------|
A|------------------0-----------------------------------------0-------------|
E|--------------------------------------------------------------------------|

E|--------------------------------------------------------------------------|
B|-----0---3--0----------5 3\1p0h1-3-1-0------------------------------------|
G|---------2--0-----4h5------------------2-----------------2----------2-----|
D|--------------------------------------------------2------2---2------2-----|
A|--------------------------------------------------2------0---2------0-----|
E|--------------------------------------------------0-0-0------0-0-0--------|
                                              Pm    . . .      . . .

E|--------------------------------------------------------------------------|
B|-----------3----------------------3------0--------------------------------|
G|-----------2----------------------2------2--------------------------------|
D|----2------0----------------------0------2--------------------------------|
A|----2------------------------------------0--------------------------------|
E|----0-0-0-----------------------------------------------------------------|
   Pm . . .  let ring __________           _______________




/\- slide
p- pull
h- hammer
pm- palm mute
Suggest correction
comments
print report bad tab
4 comments total. Showing first comments.
0 reply
Lukige 1,637 Jan 10, 2007 11:30 AM

Not a bad tab, the only thing I can see straight off is that the very last chord is: 0
2
2
An A minor without the 1 if this doesnt show properly

0 reply
poad12 20 Mar 05, 2007 10:34 AM

if youre lazy, like me, do the hammer-ons on the 1st fret on the B-string instead of moving your hand aaaall the way over to the 4th and 5th on the D :) like this:
e-----------
B---0h1p0---
G---------0-
D-----------
A-----------
E-----------

0 reply
angusrokks 60 Sep 15, 2007 07:03 AM

Almost perfect a few adjustments but it's pretty much correct

guest
You may want to rate the tab now too:
select rating
Wanna post a correction for this tab? Suggest correction