Oops, an error
Loading. Please wait.

Dio Tab

version 2
version 2

Whole song

Interactive

4,335 views 9 this week
no commentswrite comment
1 2 3 4 5
excellent!
x 5
add to favorites
launch autoscroll
font size
0
reset
how to read this tab
guitar tuner
Autoscroll
slow
fast
+/-
esc
set tempo
stop
Help us to improve Ultimate-Guitar.com Take our survey!
×
Author
Difficulty
intermediate
"Tenacious D - Dio"
Tabbed by Lotionboy

h = hammer-on
p = pull-off
b = bend
r = release bend

D
Dio has rocked for a long, long time...

e|---3p2-----0h2---|
B|-------3---------|
G|---------2-------|
D|-----------------|
A|-----------------|
E|-----------------|

                         Em
Now it's time for him to pass the torch...

e|-------------|
B|-------------|
G|---4p0-------|
D|-------4-5---|
A|-------------|
E|-------------|

D
He has songs of wildebeests and angels...

e|---3p2-----0h2---|
B|-------3---------|
G|---------2-------|
D|-----------------|
A|-----------------|
E|-----------------|

D         C             G          D
  He has soared on the wings of a demon...
  
C                             G                  
  It's time to pass the torch. 

                  F             D
You're too old to rock. No more rocking for you...
 
      C               G            D
We're taking you to a home, but we will sing a song about you...

Em                           C
  And we will make sure that very well taken care of...

Em                                   C-C    A
  You'll tell us secrets that you've learned...

e|-----------|
B|---2h3-2---|
G|-----------|   "ROAW!"
D|-----------|         
A|-----------|
E|-----------|
  
D                 C    G    D                         C     G      D               
  Your sauce will mix with ours and we'll make a good goulash, baby...

     C       G
Dio, time to go...

F                  G               D
You must give your cape and scepter to me...

      C               G
And a smaller one for KG...

[Chords Played Throughout The Solo]

D - C - G - D

[Solo]

e|---17p14----17p14----17p14----17p14-----17b19r17---|
B|---------15-------15-------15-------15-------------|
G|---------------------------------------------------|
D|---------------------------------------------------|
A|---------------------------------------------------|
E|---------------------------------------------------|

e|---17b19r17-15-17-15-14-15-14-15-14b15r14-15-14b15r14---|
B|--------------------------------------------------------|
G|--------------------------------------------------------|
D|--------------------------------------------------------|
A|--------------------------------------------------------|
E|--------------------------------------------------------|

e|---13b15-10--10-10----10---------|
B|-------------------13----10-10---|
G|---------------------------------|
D|---------------------------------|
A|---------------------------------|
E|---------------------------------|

e|-------------------------------------------|
B|-------------------------------------------|
G|---12p10----12-10--------------------------|
D|---------12---------12p10-------10---------|
A|--------------------------11h12------------|
E|-----------------------------------13-10---|

Palm Mute - - - - - - - - - - - -
e|------------------------------------|
B|------------------------------------|
G|------------------------------------|
D|------------------------------------|
A|--------------------------------8---|
E|---8-10-10-8-10-10-8-10-10-8-10-----|

Palm Mute - - - - - - - - - - -
e|-------------------------------2---|
B|-------------------------------3---|
G|-------------------------------2---|
D|---5-3-2-0-3-2-0---3-2-0---0---0---|
A|-----------------3-------3-----0---|
E|-----------------------------------|
Suggest correction
What's this?
You can suggest a correction to this tab. Community and Mods will review your correction and vote to approve or reject it.
comments
print report bad tab
guest
You may want to rate the tab now too:
select rating
Please do not post tabs as comments. Select "correction" instead!