Oops, an error
Loading. Please wait.

Explosivo Tab

version 3
version 3

Whole song

Interactive

9,846 views 1 this week
no commentswrite comment
1 2 3 4 5
please rate
add to favorites
launch autoscroll
font size
0
reset
how to read this tab
guitar tuner
Autoscroll
slow
fast
+/-
esc
set tempo
stop
Help us to improve Ultimate-Guitar.com Take our survey!
×
Author
00:00
  Csus4
|--3-------------------------------------------------|
|--3-------------------------------------------------|
|--5-------------------------------------------------|
|--5-------------------Jack sings A capella now------|
|--3-------------------------------------------------|
|----------------------------------------------------|
	
00:16
      C5	    G#5		C5	   G#5
|----------------------------------------------------|
|----------------------------------------------------|
|-----------5------------------------5---------------|
|-----------5-----------8------------5-----------8---|
|--3--3-3-3-------------8--3--3-3-3--------------8---|
|--------------4--4-4-6-----------------4--4-4-6-----|
 Pm--------| Pm--------| Pm--------|  Pm--------|

      C5	    G#5
|---------------------------|
|---------------------------|
|-----------5---------------|
|-----------5------------8--|
|--3--3-3-3--------------8--|
|---------------4--4-4-6----|
 Pm--------|  Pm--------|


00:31
	C5    G#5   A#5	      C5      G#5    A#5
|----------------------------------------------------|
|----------------------------------------------------|
|--5-555555----------------5-555555------------------| x 4
|--5-555555--6-666--8888---5-555555--6-666--8-888----|
|--3-333333--6-666--8888---3-333333--6-666--8-888----|
|------------4-444--6666-------------4-444--6-666----|

	C5    G#5   A#5
|----------------------------|
|----------------------------|
|--5-555555------------------|
|--5-555555--6-666--8888-----|
|--3-333333--6-666--8888-----|
|------------4-444--6666-----|

00:57
      C5    A#5	  F5
|----------------------------|
|----------------------------|
|--5-5-5-5--8-8--10-10-------|
|--5-5-5-5--8-8--10-10-------|		x 4
|--3-3-3-3--6-6--8--8--------|
|----------------------------|

01:03

      C5	    G#5		C5	   G#5
|----------------------------------------------------|
|----------------------------------------------------|
|-----------5------------------------5---------------|
|-----------5-----------8------------5-----------8---|
|--3--3-3-3-------------8--3--3-3-3--------------8---|
|--------------4--4-4-6-----------------4--4-4-6-----|
 Pm--------| Pm--------| Pm--------|  Pm--------|

      C5	    G#5
|---------------------------|
|---------------------------|
|-----------5---------------|
|-----------5------------8--|
|--3--3-3-3--------------8--|
|---------------4--4-4-6----|
 Pm--------|  Pm--------|

01:11
	C5    G#5   A#5
|----------------------------|
|----------------------------|
|--5-555555------------------|
|--5-555555--6-666--8888-----|
|--3-333333--6-666--8888-----|
|------------4-444--6666-----|


01:16

      C5    G#5   A#5
|----------------------------|
|----------------------------|
|--5-5-5-5-------8-8---------|
|--5-5-5-5--6-6--8-8---------|	x 5
|--3-3-3-3--6-6--6-6---------|
|-----------4-4--------------|

	C5
|-----------------------|
|-----------------------|
|--555555555555555------|
|--555555555555555------|
|--333333333333333...---|
|-----------------------|
Suggest correction
Give kudos to tab author, rate the tab!
1 2 3 4 5
comments
print report bad tab
guest
You may want to rate the tab now too:
select rating
Please do not post tabs as comments. Select "correction" instead!