Oops, an error
Loading. Please wait.

Explosivo Tab

version 4
version 4

Whole song

Interactive

5,947 views 3 this week
no commentswrite comment
1 2 3 4 5
excellent!
x 3
add to favorites
launch autoscroll
font size
0
reset
how to read this tab
guitar tuner
Autoscroll
slow
fast
+/-
esc
set tempo
stop
Help us to improve Ultimate-Guitar.com Take our survey!
×
Author
Difficulty
novice
--------------------------------------------------------------------------
			     Explosivo - Tenacious D
--------------------------------------------------------------------------
Tabbed by:gmoney2748

Tuning:Standard

	This tab is 100% correct. All the other's for this song were missing
chords and there were a few other incorrect things. So here you go let me 
know what you think.


  -Intro Part 1-   

  Let Ring
e|-3------------------------------------------------------------------------|
B|-3------------------------------------------------------------------------|
G|-5------------------------------------------------------------------------|
D|-5------------------------------------------------------------------------|
A|-3------------------------------------------------------------------------|
E|--------------------------------------------------------------------------|
                    Climb up on my faithfull steed. Then we gonna ride gonna

e|--------------------------------------------------------------------------|
B|--------------------------------------------------------------------------|
G|--------------------------------------------------------------------------|
D|--------------------------------------------------------------------------|
A|--------------------------------------------------------------------------|
E|--------------------------------------------------------------------------|
  smoke some weed. Climb up on my big assed steed. And ride, ride, riiiide..

  -Intro Part 2 (Clean or Acoustic)-

   C5      G#5 A#5 C5      G#5 A#5 C5      G#5 A#5 C5      G#5 A#5 C5 
e|-------------------------------------------------------------------------|
B|-------------------------------------------------------------------------|
G|-5-5-5-5---------5-5-5-5---------5-5-5-5---------5-5-5-5---------5-5-5-5-|
D|-5-5-5-5-6-6-8-8-5-5-5-5-6-6-8-8-5-5-5-5-6-6-8-8-5-5-5-5-6-6-8-8-5-5-5-5-|
A|-3-3-3-3-6-6-8-8-3-3-3-3-6-6-8-8-3-3-3-3-6-6-8-8-3-3-3-3-6-6-8-8-3-3-3-3-|
E|---------4-4-6-6---------4-4-6-6---------4-4-6-6---------4-4-6-6---------|
   . . .   . . .   . . .   . . .   . . .   . . .   . . .   . . .   . . .  

   G#5 G5
e|---------|
B|---------|
G|---------|
D|-6-6-5-5-|
A|-6-6-5-5-|
E|-4-4-3-3-|
 
  -Chorus (w/ Distortion)-

   C5      G#5 A#5 C5      G#5 A#5 C5      G#5 A#5 C5      G#5 G5  C5 
e|-------------------------------------------------------------------------|
B|-------------------------------------------------------------------------|
G|-5-5-5-5---------5-5-5-5---------5-5-5-5---------5-5-5-5---------5-5-5-5-|
D|-5-5-5-5-6-6-8-8-5-5-5-5-6-6-8-8-5-5-5-5-6-6-8-8-5-5-5-5-6-6-5-5-5-5-5-5-|
A|-3-3-3-3-6-6-8-8-3-3-3-3-6-6-8-8-3-3-3-3-6-6-8-8-3-3-3-3-6-6-5-5-3-3-3-3-|
E|---------4-4-6-6---------4-4-6-6---------4-4-6-6---------4-4-3-3---------|
     . . . . . . .   . . . . . . .   . . . . . . .   . . . . . . .   . . .  

   Whats the name of my song, explosivo!.... 
   
   G#5 G5
e|---------|
B|---------|
G|---------|
D|-6-6-5-5-|
A|-6-6-5-5-|
E|-4-4-3-3-|

  -Verse-

   C5      G#5 A#5 C5      G#5 G5  C5      G#5 A#5 C5      G#5 G5 
e|-----------------------------------------------------------------|
B|-----------------------------------------------------------------|
G|-5-5-5-5---------5-5-5-5---------5-5-5-5---------5-5-5-5---------|
D|-5-5-5-5-6-6-8-8-5-5-5-5-6-6-5-5-5-5-5-5-6-6-8-8-5-5-5-5-6-6-5-5-|
A|-3-3-3-3-6-6-8-8-3-3-3-3-6-6-5-5-3-3-3-3-6-6-8-8-3-3-3-3-6-6-5-5-|
E|---------4-4-6-6---------4-4-3-3---------4-4-6-6---------4-4-3-3-|
   . . . . . . . . . . .           . . . . . . . . . . .            
   
   We are fueled by satan... 


  -Bridge (Stacatto)-

   C5      D#5 F5    C5      D#5 F5    C5      D#5 F5    C5      D#5 F5
e|---------------------------------------------------------------------------|
B|---------------------------------------------------------------------------|
G|-5-5-5-5-8-8-10-10-5-5-5-5-8-8-10-10-5-5-5-5-8-8-10-10-5-5-5-5-8-8-10-10---|
D|-5-5-5-5-8-8-10-10-5-5-5-5-8-8-10-10-5-5-5-5-8-8-10-10-5-5-5-5-8-8-10-10---|
A|-3-3-3-3-6-6--8--8-3-3-3-3-6-6--8--8-3-3-3-3-6-6--8--8-3-3-3-3-6-6--8--8---|
E|---------------------------------------------------------------------------|

  -Intro Part 3 (Clean or Acoustic)-

   C5      G#5 A#5 C5      G#5 A#5 C5      G#5 G5      
e|-------------------------------------------------|
B|-------------------------------------------------|
G|-5-5-5-5---------5-5-5-5---------5-5-5-5---------|
D|-5-5-5-5-6-6-8-8-5-5-5-5-6-6-8-8-5-5-5-5-6-6-5-5-|
A|-3-3-3-3-6-6-8-8-3-3-3-3-6-6-8-8-3-3-3-3-6-6-5-5-|
E|---------4-4-6-6---------4-4-6-6---------4-4-3-3-|
   . . .   . . .   . . .   . . .   . . .   

  -Verse 2-
 
   C5      G#5 A#5 C5      G#5 A#5  
e|---------------------------------|
B|---------------------------------|
G|-5-5-5-5---------5-5-5-5---------|
D|-5-5-5-5-6-6-8-8-5-5-5-5-6-6-8-8-|
A|-3-3-3-3-6-6-8-8-3-3-3-3-6-6-8-8-|
E|---------4-4-6-6---------4-4-6-6-|
     . . . . . . .   . . . . . . .  

  
  -Bridge- x2 (Play through bridge twice with noise building in background)


then end on C5  e|--------------------------x-x-x-x-|
                B|--------------------------x-x-x-x-|
                G|-5------------------------x-x-x-x-|
                D|-5------------------------x-x-x-x-|
                A|-3------------------------x-x-x-x-|
                E|--------------------------x-x-x-x-|
                     (whispered) Explosivo!
  
  -End-

************************************
| .   palm mute
| /   slide up
| \   slide down
| h   hammer-on
| p   pull-off
| ~   vibrato
| +   harmonic
| x   Mute note
| b   Bend
| pb  Pre-bend
| br  Bend release
| pbr Pre-bend release
| brb Bend release bend

************************************
Suggest correction new What's this?
You can suggest a correction to this tab. Community and Mods will review your correction and vote to approve or reject it.
comments
We did not receive enough feedback on this tab! Please rate:
print report bad tab
1 2 3 4 5
guest
You may want to rate the tab now too:
select rating
Please do not post tabs as comments. Select "correction" instead!