Oops, an error
Loading. Please wait.

Government Totally Sucks Chords

version 2
version 2

Whole song

Interactive

55,366 views 81 this week
5 commentsread comments
1 2 3 4 5
excellent!
x 24
add to favorites
launch autoscroll
font size
0
reset
transpose
0
reset
display chords
guitar tuner
Autoscroll
slow
fast
+/-
esc
set tempo
stop
Help us to improve Ultimate-Guitar.com Take our survey!
×
Author
...THE GOVERNMENT TOTALLY SUCKS... by Tenacious D
----------------------------------...............

*from 'The Pick of Destiny' (2006)*


Verse 1:

    E
e|--0--0-0-0--0--0-0-0--|--------------------|
B|--0--0-0-0--0--0-0-0--|--------------------|
G|--1--1-1-1--1--1-1-1--|--1--1-1--1-1--1-1--|
D|--2--2-2-2--0--2-0-2--|--2--2-0--2-2--0-0--|
A|--2--2-2-2--0--2-0-2--|--2--2-0--2-2--0-0--|
E|--0--0-0-0--0--0-0-0--|--0--0-0--0-0--0-0--|

    A(add11)      G            F# G  F# E
e|--0--0-0-0-0-0--3--|--3-3-3--2--3--2--0--|
B|--0--0-0-0-0-0--3--|--3-3-3--2--3--2--0--|
G|--6--6-6-6-6-6--4--|--4-4-4--3--4--3--1--|
D|--7--7-7-7-7-7--5--|--5-5-5--4--5--4--2--|
A|--7--7-7-7-7-7--5--|--5-5-5--4--5--4--2--|
E|--5--5-5-5-5-5--3--|--3-3-3--2--3--2--0--|

(with Verse Riff):

    E
The government totally sucks, you motherfucker,
    A(add11)           G     F# G  F# E
The government totally sucks.

Verse 2:

E
 Ben Franklin was a rebel indeed,
   A(add11)                    G             F#   
He liked to get naked while he smoked on the weed.
G   F#  E
 He was a genius, but if he was here today,
    A(add11)                         G         F#  G  F#  E
The government would fuck him up his righteous A!

Verse 3:

    E
Now let me tell you something about the government, (uh huh),
        A(add11)          G     F#     G   F#    E
They're fucking up the en-viron-ment, (say what?)
        E
They're taking all the fucking beautiful animals, (yeah?)
    A(add11)               G          F#  G  F#  E
And making them fucking ex-tinct. (Oh no!)

Verse 4:

    E
The government totally sucks, you motherfucker,
    A(add11)           G(add11)
The government totally sucks,
    A(add11)           G(add11)
The government totally sucks.

Bridge 1:

         E                G#m         A(add11)               B(add11)
'Cos the land of love and freedom, is just a baby's breath a-way.
          E             G#m            A(add11)          B(add11)
And if we hold hands to-gether, we can bring back the US-A...

Coda:

       E   G#m  A(add11)
The US-AAA-AAA, yeah!
B(add11)           E   G#m  A(add11)
 Bring back the US-AAA-AAA, yeah!
B(add11)        E   G#m  A(add11)
 The fucking US-AAA-AAA, yeah!
Am
 Bring back the US!

Outro:

    E
e|--------------------------|
B|--------------------------|
G|--1------1---1------1--1--|
D|--0-h-2--2---0-h-2--0--2--|
A|--0-h-2--2---0-h-2--0--2--|
E|--0------0---0------0--0--|

(with Above Riff):

E
 Government totally sucks!


CHORD DIAGRAMS:
---------------

   E    A(add11)   G       F#    G(add11) G#m    B(add11)  Am

 EADGBE  EADGBE  EADGBE  EADGBE  EADGBE  EADGBE  EADGBE  EADGBE
 022100  577600  355433  244322  355400  466444  799800  577555


Tabbed by Joel from cLuMsY, Bristol, England, 2006 (clumsyband@hotmail.com)
Suggest correction
What's this?
You can suggest a correction to this tab. Community and Mods will review your correction and vote to approve or reject it.
comments
print report bad tab
5 comments total. Showing first comments.
+1 reply
jugamasta420 428 wrote on February 28 2007, 03:04 pm

hey good tab man 4 stars

+1 reply
CaptainBeyond 14 wrote on March 31 2007, 09:53 am

very good, d

+1 reply
angusrokks 148 wrote on September 15 2007, 07:07 am

Getting there

guest
You may want to rate the tab now too:
select rating
Please do not post tabs as comments. Select "correction" instead!