Oops, an error
Loading. Please wait.

Karate Bass Tab

version 1
version 1

Whole song

Interactive

1,406 views 1 this week
no commentswrite comment
1 2 3 4 5
please rate
add to favorites
launch autoscroll
font size
0
reset
guitar tuner
Autoscroll
slow
fast
+/-
esc
set tempo
stop
Help us to improve Ultimate-Guitar.com Take our survey!
×
Contributor
Difficulty
|T4Z| 382
novice
 With Karate I’ll kick your ass,  From to Tianemen Square
G|--------------------------------|--------0-----------------------|
D|--------3---2-0---2-----2-------|------------0--2--0--2--2-------|
A|----------------3---3-------3---|--------------------------------|
E|1-------------------------------|3-------------------------------|

  Oh yeah Motherfucker,            Gonna kick your fuckin’ derriere yeah
G|--------------------------------|--------0-----------------------|
D|--------3---2-0---2-----2-------|------------0--2----------------|
A|----------------3---3-------3---|--------------------------------|
E|1-------------------------------|3-------------------------------|

  You broke the rules,             Now I’m gonna pull out all your pubic hairs
G|--------------------------------|--------0-----------------------|
D|--------3---2-0---2-----2-------|------------0--2--0--2--2-------|
A|----------------3---3-------3---|--------------------------------|
E|1-------------------------------|3-------------------------------|

                               You Motherfucker
G|--------------------------------|--------0-----------------------|
D|--------3---2-0---2-----2-------|------------0--2--0--2--2-------|
A|----------------3---3-------3---|--------------------------------|
E|1-------------------------------|3-------------------------------|

                               You Motherfucker
G|--------------------------------|--------0-----------------------|
D|--------3---2-0---2-----2-------|------------0--2--0--2--2-------|
A|----------------3---3-------3---|--------------------------------|
E|1-------------------------------|3-------------------------------|

Kyle betrayed me an he lied trieda hide an I died deep inside an u no de reason why
G|--------------------------------|--------------------------------|
D|------------2-0-2---2-0-2-------|--------------------------------|
A|----------------------------2-0-|2---2-0-2---0-------------------|
E|--------------------------------|--------------3-0---------------|

  I’m gonna kick your ass,         From here to right over there
G|--------------------------------|--------0-----------------------|
D|--------3---2-0---2-----2-------|------------0--2--0--2--2-------|
A|----------------3---3-------3---|--------------------------------|
E|1-------------------------------|3-------------------------------|

  Oh yeah Motherfucker,            Gonna kick your fuckin derriere yeahieah
G|--------------------------------|--------0-----------------------|
D|--------3---2-0---2-----2-------|------------0--2----------------|
A|----------------3---3-------3---|--------------------------------|
E|1-------------------------------|3-------------------------------|

  You broke the rules,             Now I’ll pull out all your pubic haihiear
G|--------------------------------|--------0-----------------------|
D|--------3---2-0---2-----2-------|------------0--2--0--2--2-------|
A|----------------3---3-------3---|--------------------------------|
E|1-------------------------------|3-------------------------------|

                               You Motherfucker
G|--------------------------------|--------0-----------------------|
D|--------3---2-0---2-----2-------|------------0--2--0--2--2-------|
A|----------------3---3-------3---|--------------------------------|
E|1-------------------------------|3-------------------------------|

                               You Motherfucker
G|--------------------------------|--------0-----------------------|
D|--------3---2-0---2-----2-------|------------0--2--0--2--2-------|
A|----------------3---3-------3---|--------------------------------|
E|1-------------------------------|3-------------------------------|
comments
We did not receive enough feedback on this tab! Please rate:
print report bad tab
1 2 3 4 5
I want to post or [tab]
guest
You may want to rate the tab now too:
select rating
Please do not post tabs as comments. Select "correction" instead!