Oops, an error
Loading. Please wait.

Karate Chords

version 1
version 1

Whole song

Interactive

151,024 views 171 this week
15 commentsread comments
1 2 3 4 5
x 74
add to favorites
launch autoscroll
font size
0
reset
transpose
0
reset
display chords
guitar tuner
Autoscroll
slow
fast
+/-
esc
set tempo
stop
Help us to improve Ultimate-Guitar.com Take our survey!
×
-------------------------------------------------------------------------------
                             Karate - Tenacious D
-------------------------------------------------------------------------------

By:Sam Haberman 


[Verse 1]

      F                     C     
 With karate I'll kick your ass
      G                   E
 From Here to Tienomen Square
 F                C
 Oh Yeah, motherfucker
           G                         E
 Im gonna kick your fucking deriair yeah-e-yeah


[Chorus]

 F               C              G                   E     
 You broke the rules, now I'll pull out your pubic hair
 F   C         G         E
       You Motherfucker
 F   C         G         E
       You Motherfucker 


[Verse 2]

 F                          C
 Kyle Betrayed me, then he lied, tried to hide it
        G                           E
 But I kept it deep inside and you know the reason why
 F                    C          G                  E
 I'm gonna kick your ass, from here, to right over there
 F                C
 Oh Yeah, motherfucker
           G                         E
 Im gonna kick your fucking deriair yeah-e-yeah


[Chorus]

 F               C              G                   E     
 You broke the rules, now I'll pull out your pubic hair
 F   C         G         E
       You Motherfucker
 F   C         G         E
       You Motherfucker 


Chords
    F   C   G   E  
e|----------3----0--|
B|--1---1---3----0--|
G|--2---0---0----1--|
D|--3---2---0----2--|
A|--3---3---2----2--|
E|----------3----0--| 
Suggest correction
comments
print report bad tab
15 comments total. Showing first comments.
+1 reply
Flyckten 60 Oct 25, 2003 12:00 AM

Now I pull out ALL your pubic hair. Great tab anyway.

+1 reply
k-man burnt 51 Sep 17, 2005 12:00 AM

you've done it! huge congrats btw!

go tenacious D!!!!!!

+2 reply
meat5000 90 Nov 01, 2005 01:59 PM

e|----------------------------------3-----------|
B|------1-----1---------------------3-----------|
G|--0-2---0-2---2-0-----0---------4-4-4---1-1-m-|
D|------------------0-2---2-0-----5---5---2-2-m-|
A|----------------------------3-0-5---5---2-2-m-|
E|--------------------------------3---3---0-0-m-|

Whatcha reckon? This the centre riff?

guest
You may want to rate the tab now too:
select rating
Wanna post a correction for this tab? Suggest correction