Oops, an error
Loading. Please wait.

Karate Tab

version 1
version 1

Whole song

Interactive

13,818 views 15 this week
no commentswrite comment
1 2 3 4 5
accurate
x 4
add to favorites
launch autoscroll
font size
0
reset
how to read this tab
guitar tuner
Tab Pro tools
  • play this tab
  • loop segment
  • change instrument
  • show fretboard
  • metronome
×
Best way to learn
"Karate"
Autoscroll
slow
fast
+/-
esc
set tempo
stop
Contributor
Song: Karate
Artist: Tenacious D
Album: Tenacious D
Tabbed by: _Jacco
Tuning: standard

Enjoy. This is my second tab. 
The main riff is:

e|--------------------------------|--------------------------------|
B|1-------1---1-----1-1---1-------|--------------------------------|
G|2-------2---2-----0-0---0---0---|0-------0---0-0---1-1---1-------|
D|3-------3---3-0h2-2-2---2---0---|0-------0---0-0---2-2---2-------|
A|3-------3---3-0h3-3-3---3---0---|2-------2---2-2---2-2---2-------|
E|--------------------------------|3-------3---3-3---0-0---0-------|
  d       d   u  d  u d   d        d       d   d u   d u   d

There are some other parts however. I've written the full song down below.
Good luck ;)





e|--------------------------------|--------------------------------|
B|1-------1---1-----1-1---1-------|--------------------------------|
G|2-------2---2-----0-0---0---0---|0-------0---0-0---1-1---1-------|
D|3-------3---3-0h2-2-2---2---0---|0-------0---0-0---2-2---2-------|
A|3-------3---3-0h3-3-3---3---0---|2-------2---2-2---2-2---2-------|
E|--------------------------------|3-------3---3-3---0-0---0-------|
  d       d   u  d  u d   d        d       d   d u   d u   d

With karate I'll kick your ass, here to Tiananmen Square!



e|--------------------------------|--------------------------------|
B|1-------1---1-----1-1---1-------|--------------------------------|
G|2-------2---2-----0-0---0---0---|0-------0---0---1---------------|
D|3-------3---3-0h2-2-2---2---0---|0-------0---0---2---------------|
A|3-------3---3-0h3-3-3---3---0---|2-------2---2---2---------------|
E|--------------------------------|3-------3---3---0---------------|
  d       d   u  d   u d   d       d       d   d   d
Oh yeah, motherfucker! I'm gonna kick your fuckin derriere Yeah Yeah! 



e|--------------------------------|--------------------------------|
B|1-------1---1-----1-1---1-------|--------------------------------|
G|2-------2---2-----0-0---0---0---|0-------0---0-0---1-1---1-------|
D|3-------3---3-0h2-2-2---2---0---|0-------0---0-0---2-2---2-------|
A|3-------3---3-0h3-3-3---3---0---|2-------2---2-2---2-2---2-------|
E|--------------------------------|3-------3---3-3---0-0---0-------|
  d       d   u  d  u d   d        d       d   d u   d u   d
You broke the rules,  now I'll pull out all your pubic hair!



e|--------------------------------|--------------------------------|
B|1-------1---1-----1-1---1-------|--------------------------------|
G|2-------2---2-----0-0---0---0---|0-------0---0-0---1-1---1-------|
D|3-------3---3-0h2-2-2---2---0---|0-------0---0-0---2-2---2-------|
A|3-------3---3-0h3-3-3---3---0---|2-------2---2-2---2-2---2-------|
E|--------------------------------|3-------3---3-3---0-0---0-------|
  d       d   u  d  u d   d        d       d   d u   d u   d
You motherfucker



e|--------------------------------|--------------------------------|
B|----1-----1---------------------|--------------------------------|
G|0h2---0h2---0h2-----0-----0-----|----0----0----------------------|
D|----------------0h2---0h2---0h2-|----0----0------2---------------|
A|--------------------------------|0h2---0h2---2---2---------------|
E|--------------------------------|3-----3-----3---0---------------|
Kyle betrayed me, then he lied try to hide, and I die deep inside and you know the reason why!



e|--------------------------------|--------------------------------|
B|1-------1---1-----1-1---1-------|--------------------------------|
G|2-------2---2-----0-0---0---0---|0-------0---0-0---1-1---1-------|
D|3-------3---3-0h2-2-2---2---0---|0-------0---0-0---2-2---2-------|
A|3-------3---3-0h3-3-3---3---0---|2-------2---2-2---2-2---2-------|
E|--------------------------------|3-------3---3-3---0-0---0-------|
  d       d   u  d   u d   d       d       d   d u   d u   d
I'm gonna kick your ass, from here to right over there!



e|--------------------------------|--------------------------------|
B|1-------1---1-----1-1---1-------|--------------------------------|
G|2-------2---2-----0-0---0---0---|0-------0---0---1---------------|
D|3-------3---3-0h2-2-2---2---0---|0-------0---0---2---------------|
A|3-------3---3-0h3-3-3---3---0---|2-------2---2---2---------------|
E|--------------------------------|3-------3---3---0---------------|
  d       d   u  d   u d   d       d       d   d   d
Oh yeah, motherfucker! I'm gonna kick your fuckin derriere Yeah Yeah! 



e|--------------------------------|--------------------------------|
B|1-------1---1-----1-1---1-------|--------------------------------|
G|2-------2---2-----0-0---0---0---|0-------0---0-0---1-1---1-------|
D|3-------3---3-0h2-2-2---2---0---|0-------0---0-0---2-2---2-------|
A|3-------3---3-0h3-3-3---3---0---|2-------2---2-2---2-2---2-------|
E|--------------------------------|3-------3---3-3---0-0---0-------|
  d       d   u  d   u d   d       d       d   d u   d u   d
You broke the rules,  now I'll pull out all your pubic hair!


e|--------------------------------|--------------------------------|
B|--------1---1-------------------|--------------------------------|
G|--------2---2-----0-----0---0---|------------0-----0-----0-------|
D|3-------------0h2---2-----------|--------0---0-0h2---2-----------|
A|3-------------0h3---------------|2-------2---2-------------------|
E|--------------------------------|3-------3---3-------------------|
You motherfucker

e|--------------------------------|--------------------------------|
B|--------1---1-------------------|--------------------------------|
G|--------2---2-----0-----0---0---|------------0-----1-------------|
D|3-------------0h2---2-----------|--------0---0-0h2---2---2-------|
A|3-------------0h3---------------|2-------2---2-----------2-------|
E|--------------------------------|3-------3---3-----------0-------|
... You motherfucker
comments
print report bad tab
I want to post or [tab]
guest
You may want to rate the tab now too:
select rating
Please do not post tabs as comments. Select "correction" instead!