Oops, an error
Loading. Please wait.

Kickapoo Bass Tab

version 1
version 1

Whole song

Interactive

17,175 views 24 this week
no commentswrite comment
1 2 3 4 5
x 4
add to favorites
launch autoscroll
font size
0
reset
guitar tuner
Autoscroll
slow
fast
+/-
esc
set tempo
stop
Help us to improve Ultimate-Guitar.com Take our survey!
×
Author
Difficulty
intermediate
Kickapoo – Tenacious D
Tabbed by: Thomassoon   
Tuning: Standard

A lot of this song doesn’t have any bass but it sounds cool anyway.
Thanks to Sexy Manwich for a great guitar tab which helped me a lot.

[Intro] ‘Long Ass Fucking time ago..’
G|------------------------------------------------| 
D|------------------------------------------------|    x2        
A|--5~~~~----------5~~~~--------------------------|              
E|------------------------------------------------|

G|------------------------------------------------|              
D|------------------------------------------------|    x2        
A|------------------------------------------------|              
E|--5~~~~----------5~~~~--------------------------|              
                                                                 
G|------------------------------------------------|              
D|------------------------------------------------|              
A|------------------------------------------------|              
E|--1~~~~-----------------------------------------|              
                                                                 
G|------------------------------------------------|              
D|------------------------------------------------|              
A|--3~~~~-----------------------------------------|              
E|-------------------3~~~~------------------------|  
                    
Play that whole intro 4x

JB’s song ‘oh the dragons balls were blazing..’
G|-----------------------------------------------------|
D|-----------------------------------------------------| x2
A|------------33333333---------------------------------|
E|--55555555------------33333333--66666666-------------|

                                                                   [End on]
G|-----------------|  |------------------|-------------------o|    |---|
D|-----------------|  |------------------|-------------------o| x4 |---|
A|-----------------|  |------------------|-----5-X-----5------|    |---|
E|--5-5-5-5-5-5-5/7|  |--8--8--XX-3-3-XX-|-5-X-----5-X---5/7--|    |-5-|

Dad section ‘you’ve disobeyed my orders..’
G|-------------------------------------|    |-----------------|
D|-------------------------------------| x4 |-----------------|
A|-----3--------6-------1--------4-----|    |-----------------|
E|-1/3---33--6-6--66--1---11--4-4--44--|    |-3-3-3-3-3-3-3/5-|

                                              [End on]
G|----------------|--------------------| x4   |---|
D|----------------|--------------------|      |---|
A|----------------|-----3-X-----3------|      |---|
E|--6-6-XX-1-1-XX-|-3-X---X-3-X---3/5--|      |-3-|

Prayer to Dio ‘Dio can you hear me..?’
G|-----------------------------------------------------------------|
D|-----------------------------------------------------------------| x3
A|---10--------------13-----------12---------------11--------------|
E|-----------------------------------------------------------------|

Dio’s Song ‘I hear you brave young JBles..’
G|--------------------------------------|
D|--------------------------------------|
A|--------------------------------------|
E|--3-33-3---4-44-4---1-11-1---6-6-4-4--|

G|------------------------------------------|
D|------------------------------------------|
A|--3---3---3---111111--3---3---3---1111-3~-|
E|------------------------------------------|

G|----------------------------------------------------|
D|----------------------------------------------------|
A|-3~---------3~-------------3~---------3~------------|
E|------1~-4~------1~-3-4~--------1~-4~------1-1-4-4--|

Ending ‘ROOOOOOCCCCCKKKKKK!!!!!’
G|-----------------------------------------------------------|
D|-----------------------------------------------------------| x2
A|-----------6-6-5-----------6-6-5-----------6-6-5-3--5-6-8--|
E|-3-33-XXXX-------3-33-XXXX-------3-33-XXXX-----------------|

G|---------------------------------|
D|---------------------------------|
A|--------5~---11111111-33333333---|
E|--3~-----------------------------|

G|-----------------------------------------------------------|
D|-----------------------------------------------------------| x3
A|-----------6-6-5-----------6-6-5-----------6-6-5-3--5-6-8--|
E|-3-33-XXXX-------3-33-XXXX-------3-33-XXXX-----------------|

G|--------------------------------------------------------------------------|
D|--------------------------------------------------------------------------|
A|--------------------------------------------------------------------------|
E|--333333333333333333333333~~~~~\0-----------------------------------------|


************************************

| ~  Vibrato
| /  Slide up
| x  Dead note

************************************
Suggest correction
comments
print report bad tab
guest
You may want to rate the tab now too:
select rating
Wanna post a correction for this tab? Suggest correction