Oops, an error
Loading. Please wait.

Kielbasa Tab

version 1
version 1

Intro

Interactive

9,507 views 6 this week
no commentswrite comment
1 2 3 4 5
accurate
x 4
add to favorites
launch autoscroll
font size
0
reset
how to read this tab
guitar tuner
Tab Pro tools
  • play this tab
  • loop segment
  • change instrument
  • show fretboard
  • metronome
×
Best way to learn
"Kielbasa"
Autoscroll
slow
fast
+/-
esc
set tempo
stop
Contributor
Difficulty
intermediate
E----------------------------------------------------------------------------|
A----------------------------------1------1-1-1---1--------------------------|
D-----------3(bend)-0--3(bend)-0----0h2-0--0-0-0---0-------------------------|
G-----------0-------0--0-------0----3----3-2-0-0h2-0-------------------------|
B------------------------------------------3-3-3---3-------------------------|
E------3--3------------------------------------------------------------------|

E-----------------------------------------------------------------------------|
A----------------------------------1------1-----------------------------------|
D-----------3(bend)-0--3(bend)-0----0h2-0--0----------------------------------|
G-----------0-------0--0-------0----3----3-2----------------------------------|
B------------------------------------------3----------------------------------|
E------3--3-------------------------------------------------------------------|

E-----------------------------------------------------------------------------|
A-------------------------------------1------1-1-1---1------------------------|
D--------------3(bend)-0--3(bend)-0----0h2-0--0-0-0---0-----------------------|
G--------------0-------0--0-------0----3----3-2-0-0h2-0-----------------------|
B---------------------------------------------3-3-3---3-----------------------|
E--------3--3-----------------------------------------------------------------|


E----------------------------------------------------------------------------|
A------------------------------------1------1--------------------------------|
D-------------------------------------0h2-0--0-------------------------------|
G-------------------------------------3----3-2-------------------------------|
B-------2-3h2-2-0-2--------------------------3-------------------------------|
E-----3-------------3-1------------------------------------------------------|
comments
print report bad tab
I want to post or [tab]
guest
You may want to rate the tab now too:
select rating
Please do not post tabs as comments. Select "correction" instead!